Oops, an error
Loading. Please wait.

Misery Loves Its Company Tab

version 2
version 2

Interactive

3,483 views 6 this week
4 commentsread comments
1 2 3 4 5
worth learning
x 3
add to favorites
launch autoscroll
font size
0
reset
how to read this tab
guitar tuner
Tab Pro tools
  • play this tab
  • loop segment
  • change instrument
  • show fretboard
  • metronome
Autoscroll
slow
fast
+/-
esc
set tempo
stop
Difficulty
Tuning
novice
D A D G B E
This song is a good song and tabs before this messed up so im givin it a shot
Lead Guitarist-Duke Kitchens
Intro(plays when electric guitars come in)
e------------------------------------------------------------|
B------------------------------------------------------------|
G---------5-----------------------9--------------------------|
D-4-44444-x-2-22222-4-3-2-4-44444-7-2-22222-10p87p65p3-(x2)--|
A-4-44444-3-2-22222-4-3-2-4-44444---2-22222------------------|
D-4-44444---2-22222-4-3-2-4-44444---2-22222------------------|
verse 1 and 2
e------------------------------------------------------------|
B------------------------------------------------------------|
G-----7---------------7-----------7p5------------------------|
D-7-5---7-5-7-5-7-7-5---7-5-7-5-7-----7p5-5p3-3p1------------|
A------------------------------------------------3p1---------|
D---------------------------------------------------5p3~~----|
[P.M].............................
Chorus
e----------------------------------------------------------------------|
B----------------------------------------------------------------------|
G----------------------------------------------------------------------|
D-10-1010101010-10-1010101010-10-1010101010-12121212121414141414-(x3)--|
A--x--x-x-x-x-x--x--x-x-x-x-x--x--x-x-x-x-x--x-x-x-x-x-x-x-x-x-x-------|
D--8--8-8-8-8-8--8--8-8-8-8-8--8--8-8-8-8-8-10101010101212121212-------|
Bridge(repeat then play this on your e and b strings and reapeat that to)
e----------------------------------------------------------------------|
B----------------------------------------------------------------------|
G-12-1212---------10-1010---------12-1212------------------------------|
D---------12-1212---------12-1212---------12-1212-13-1313-15-----------|
A----------------------------------------------------------------------|
D----------------------------------------------------------------------|
Order for lead guitarist
Intro- Don't play right away
Verse-Don't play right away
Chorus
Verse-Don't play right away
Chorus
Bridge
Chorus
Outro-play Intro


This one was alot easier to get than the last one
Rhythem guitar-Elias Reidy
Intro-clean(I think you might do each chord more but im not sure)
e-----------------------------------------------------------|
B-----------------------------------------------------------|
G-3-33333-3-33333-5-55555-5-55555-----------------9~--11~---|
D-3-33333-3-33333-5-55555-5-55555-5-55555-5-55555-7~---9~---|
A-1-11111-1-11111-3-33333-3-33333-5-55555-5-55555-----------|
D---------------------------------5-55555-5-55555-----------|
Intro-dist.(x2)
e-----------------------------------------------------|
B-----------------------------------------------------|
G---------------------------------5-------------------|
D-4-44444-4-2-22222-4-3-2-4-44444-5-2-2222222222------|
A-4-44444-4-2-22222-4-3-2-4-44444-3-2-2222222222------|
D-4-44444-4-2-22222-4-3-2-4-44444---2-2222222222------|
Verse 1 and 2(let each ring)
e-------------------------|
B-------------------------|
G---5-5-7-----------------|
D-2-x-x-x---(x4)----------|
A-2-3-3-5-----------------|
D-2-----------------------|
Chorus(x2)
e---------------------------------------------|
B---------------------------------------------|
G-----------------5-5-5-5-5-5-5-5-5-5-7-7-7---|
D-2-2-2-2-2-2-2-2-x-x-x-x-x-x-x-x-x-x-x-x-x---|
A-2-2-2-2-2-2-2-2-3-3-3-3-3-3-3-3-3-3-5-5-5---|
D-2-2-2-2-2-2-2-2-----------------------------|
Bridge(Dont know how many times to play)
e---------------------------------------------|
B---------------------------------------------|
G-12-11-7-9-----------------------------------|
D--x--x-x-x-----------------------------------|
A-10--9-5-7-----------------------------------|
D---------------------------------------------|
order
Intro-clean
Intro-dist.
verse
chorus
verse
chorus
bridge
chorus
outro-play intro dist.

I dont know if this is duke during the second verse or 3rd guitar but w/e
e------------------------------------------|
B------------------------------------------|
G------------------------------------------|
D-22-22-22-22-22-2222----------------------|[palm mute](x2)
A-22-22-22-22-22-2222----------------------|
D-22-22-22-22-22-2222----------------------|
comments
We did not receive enough feedback on this tab! Please rate:
print report bad tab
1 2 3 4 5
4 comments total. Showing first comments.
0 reply
spencer Cr wrote on May 23 2007, 03:54 pm

yeah this looks right, thanks man now i can play the whole album

0 reply
spencer Cr wrote on July 30 2007, 06:07 pm

now that i look agian u need to fix it up a bit

+1 reply
thehardwayout wrote on January 2 2008, 06:22 pm

OMG, ALL(more like most) RJA SONGS ARE IN DROP C

I want to post or [tab]
guest
You may want to rate the tab now too:
select rating
Please do not post tabs as comments. Select "correction" instead!