Oops, an error
Loading. Please wait.

Misery Loves Its Company Tab

version 4
version 4

Interactive

867 views 1 this week
no commentswrite comment
1 2 3 4 5
worth learning
x 2
add to favorites
launch autoscroll
font size
0
reset
how to read this tab
guitar tuner
Tab Pro tools
  • play this tab
  • loop segment
  • change instrument
  • show fretboard
  • metronome
Autoscroll
slow
fast
+/-
esc
set tempo
stop
Difficulty
Tuning
intermediate
D A D G B E
Artist: The Red Jumpsuit Apparatus
Song: Misery Loves' It's Company
Album: Dont You Fake It
Tabbed By: Phristo C.


this is in drop d but rja usually performs it in drop c..
add overdrive and audio delay for the rhythm..

Rhythm Guitarist:

Intro Clean   Listen close..
e-------------------------------------------|
B-------------------------------------------|
G--3----------5-----------7-----------------|
D--3----------5-----------7----------5------|
A--1----------3-----------5----------5------|
D------------------------------------5------|

Intro Overdriven
Its true, we are..
e---------------------------------------|
B---------------------------------------|
G-----------------------5---------------| (x2)
D-4444-4-222-5-4-2-4444-x-2222---[6]----|
A-4444-4-222-5-4-2-4444-3-2222---[6]----|
D-4444-4-222-5-4-2-4444---2222---[6]----|
             [] Is played on second count.

Verse 1

There is a problem here..
e------------------------------------------------------|
B------------------------------------------------------|
G------------------------------------------------------|
D---4--------6-----2------6-----4------6-----2---------|
A---4--------6-----2------6-----4------6-----2---------|
D---4--------6-----2------6-----4------6-----2---------|



Chorus

Beat but im not broken..
e------------------------------------------------------|
B------------------------------------------------------|
G------------------------------------------------------|
D--4-------2--------4-------2--------------------------|
A--4-------2--------4-------2--------------------------|
D--4-------2--------4-------2--------------------------|


Verse 2

Your prosecuting me..
e------------------------------------------------------|
B------------------------------------------------------|
G------------------------------------------------------|
D---4--------6-----2----22--2-(2)-4------6-----2-------|
A---4--------6-----2----22--2-(2)-4------6-----2-------|
D---4--------6-----2----22--2-(2)-4------6-----2-------|
P.M.                    ..     .

Chorus 2
e------------------------------------------------------|
B------------------------------------------------------|
G------------------------------------------------------|
D--4-------2--------4-------2--------------------------|(x2)
A--4-------2--------4-------2--------------------------|
D--4-------2--------4-------2--------------------------|



Bridge

                                     ..into dusk..
e------------------------------------------------------|
B------------------------------------------------------|
G--9--(12\11\7\9)-----------9--11-12-7-----------------|
D--x--(x--x--x-x)-(x3)------x--x--x--x-----------------|
A--7--(10\9\-5\7)-----------7--9--10-5-----------------|
D------------------------------------------------------|


e------------------------------------------------------|
B------------------------------------------------------|
G----7----5--------------------------------------------|
D----7----5-----5-----3-------------------11~----------|
A----5----3-----5-----3----(x2)-----------9~-----------|
D---------------5-----3--------------------------------|

Chorus 3
Don't play first half
e-----------------------------------------------------|
B-----------------------------------------------------|
G-----------------------------5-----------------------|
D---44444--2-2222-------4-----5----2----4-------------|
A---44444--2-2222-------4-----3----2----4-------------|
D---44444--2-2222-------4----------2----4-------------|
P.M.  ....    ....        

Outro

e-----------------------------------------------------|
B-----------------------------------------------------|
G---------------------------------5-------------------| (x2)
D-4-44444-4-2-22222-5-4-2-4-44444-x-2-222222-----2----|
A-4-44444-4-2-22222-5-4-2-4-44444-3-2-222222-----2----|
D-4-44444-4-2-22222-5-4-2-4-44444---2-222222-----2----|


Outro (continued)

e-----------------------------------------------------|
B-----------------------------------------------------|
G-----------------------------------------------------|
D---10p8---7h8p7-7p5p0------2-------------------------|
A---------------------------2-------------------------|
D---------------------------2-------------------------|





Lead Guitarist:

Intro (overdriven)

..to the ground..
e-------------------------|
B-------------------------|
G--11-------12-------12^--|
D--9--------10-------10^--|
A-------------------------|
D-------------------------|

Intro Overdriven

Its true, we are..
e------------------------------------------------|
B------------------------------------------------|
G------5----------------9------------------------|
D-4444-x-222-5-4-2-4444-7-222-[10p8--7h8p7-7p5p0]|(x2)
A-4444-3-222-5-4-2-4444---222--------------------|
D-4444---222-5-4-2-4444---222--------------------|  
             [] Don't play 2nd time.
                       


Verse 1 Overdriven

There is a problem here..
e---------------------------------------------------------------------|
B---------------------------------------------------------------------|
G---7----9---5---7--------7-----------7-----------7-----------7-------|
D---7----9---5---7----7-5---5-7-5-7-5---5-7-5-7-5---5-7-5-7-5---5-7-5-|
A---5----7---3---5----------------------------------------------------|
D---------------------------------------------------------------------|
                      . . . . . . . . . . . . . . . . . . . . . . . . 
Verse 1 (continued)

e---------------------------------------------|
B---------------------------------------------|
G-------------7p5-5p3-3p1-1p0-3/5-------------|
D-----7-5---5---------------------------------|
A---------7-----------------------------------|
D---------------------------------------------|
      . . . .


Chorus 1

Beat but im not broken..
e----------------------------------------------------------------|
B----------------------------------------------------------------|
G----12----14--11----12----14--11----12/14/16/17--17\16\14\12\11-|
D----x-----x---x-----x-----x---x-----x--x--x--x---x--x--x--x--x--|
A----10----12--9-----10----12--9-----10/12/14/15--15\14\12\10\9--|
D----------------------------------------------------------------|



Verse 2
Your prosecuting me..
e---------------------------------------------------------------------|
B---------------------------------------------------------------------|
G---7----9---5---7--------7-----------7-----------7-----------7-------|
D---7----9---5---7----7-5---5-7-5-7-5---5-7-5-7-5---5-7-5-7-5---5-7-5-|
A---5----7---3---5----------------------------------------------------|
D---------------------------------------------------------------------|
                      . . . . . . . . . . . . . . . . . . . . . .

Verse 2 (continued)

e---------------------------------------------|
B---------------------------------------------|
G-------------7p5-5p3-3p1-1p0-3/5-------------|
D-----7-5---5---------------------------------|
A---------7-----------------------------------|
D---------------------------------------------|
      . . . .

Chorus 2

Beat but im not broken..
e----------------------------------------------------------------|
B----------------------------------------------------------------|
G----12----14--11----12----14--11----12/14/16/17--17\16\14\12\11-|
D----x-----x---x-----x-----x---x-----x--x--x--x---x--x--x--x--x--|(x2)
A----10----12--9-----10----12--9-----10/12/14/15--15\14\12\10\9--|
D----------------------------------------------------------------|



Bridge

e-------------------------------------------------------|
B-------------------------------------------------------|
G----14-1414-----13-1313---------11-1111-----13-1313----|
D------------12-----------12-------------12----------12-|
A-------------------------------------------------------|(x4)
D-------------------------------------------------------|

..into dusk..
e-------------------------------------------------------|
B----14-1414-----13-1313--------11-1111-----[13-1313]---|
G------------12-----------12------------12---------[12]-|
D-------------------------------------------------------|(x4)
A-------------------------------------------------------|
D-------------------------------------------------------|
               [] Don't Play 4th time.

Chorus 3
e----------------------------------------------------------------|
B----------------------------------------------------------------|
G----12----14--11----12----14--11----12/14/16/17--17\16\14\12\11-|
D----x-----x---x-----x-----x---x-----x--x--x--x---x--x--x--x--x--|(x2)
A----10----12--9-----10----12--9-----10/12/14/15--15\14\12\10\9--|
D----------------------------------------------------------------|


Outro:

Its true, we are..
e------------------------------------------------|
B------------------------------------------------|
G------5----------------9------------------------|
D-4444-x-222-5-4-2-4444-7-222-[10p8--7h8p7-7p5p0]|(x2)
A-4444-3-222-5-4-2-4444---222--------------------|
D-4444---222-5-4-2-4444---222--------------------|  
             [] Don't play 2nd time.

e----------------------------------------------------------------------|
B----------------------------------------------------------------------|
G----------------------------------------------------------------------|
D---10p8---7h8p7-7p5p0-----10p8---7h8p7-7p5p0-------10p8---7h8p7-7p5p0-|
A----------------------------------------------------------------------|
D----------------------------------------------------------------------|


e----|
B----|
G----|
D--2-|
A--2-|
D--2-|

comments
We did not receive enough feedback on this tab! Please rate:
print report bad tab
1 2 3 4 5
I want to post or [tab]
guest
You may want to rate the tab now too:
select rating
Please do not post tabs as comments. Select "correction" instead!