Oops, an error
Loading. Please wait.

Misery Loves Its Company Tab

version 6
version 6

Interactive

1,543 views 9 this week
4 commentsread comments
1 2 3 4 5
excellent!
x 3
add to favorites
launch autoscroll
font size
0
reset
how to read this tab
guitar tuner
Tab Pro tools
  • play this tab
  • loop segment
  • change instrument
  • show fretboard
  • metronome
Autoscroll
slow
fast
+/-
esc
set tempo
stop
Contributor
Difficulty
Tuning
intermediate
C G C F A D
 After looking for a tab for this song, I decided to learn it by ear and by 
watching live vids. This is what I came up with, I hope you like it. I've also 
tabbed out Rhythm guitar and may submit a tab on that if I get asked for it.
*Search ELITE815 on youtube for videos of me playing lead, and rhythm for this song*
Guitar 1, Elias

Intro A 
clean chords. refer to song for strumming rhythm/pattern
d|-----------------|
a|-----------------|
f|--6---7---2---1--|
c|--7---7---2---2--|
G|--4---5---0---0--|
C|-----------------|


Intro B
d|------------------------------------------------------10--------------|
a|------------------------------------------------------x---------------|
f|-----------------7------------------------------------7---------------|
c|-----------------x----------------------------------------------------|
G|-4--4-4--4-4--4--5--4--4-4--4--7-6-2--0--0-0--0-0--0-----0--0-0--0-0--|
C|-4--4-4--4-4--4-----4--4-4--4--7-6-2--0--0-0--0-0--0-----0--0-0--0-0--|

End 1                End 2 into verse
d|-----------------|-----|
a|-----------------|-----|
f|-----------------|-----|
c|--6h7p6-4-4h5p4--|-----|
G|-----------------|--2--|
C|-----------------|--2--|



Verse 1
    A                          verse B x2
d|-----------------| B |-----------------------------------------------|
a|-----------------|   |-----------------------------------------------|
f|-----------------|   |-----------------------------------------------|
c|----------7------|   |--7-6-7-9-7-6-7-6-7-9-7-6-7-6-7-9-7-6-7-6---6--|
G|--4---7---5---2--|   |------------------------------------------9----|
C|--4---7-------2--|   |-----------------------------------------------|


Chorus
Octave chords. Refer to song for strumming rhythm/pattern
d|------------------------------------------------------------|
a|--10--12--9---10--12--9---10--12--14---15---14---12--10--9--|Chorus x1
f|--x---x---x---x---x---x---x---x---x----x----x----x---x---x--|
c|--7---9---6---7---9---6---7---9---11---12---11---9---7---6--|
G|------------------------------------------------------------|
C|------------------------------------------------------------|


Verse 2
Chugs on verse A              verse B x2
d|-----------------| B |-----------------------------------------------|
a|-----------------|   |-----------------------------------------------|
f|-----------------|   |-----------------------------------------------|
c|----------7------|   |--7-6-7-9-7-6-7-6-7-9-7-6-7-6-7-9-7-6-7-6---6--|
G|--4---7---5---2--|   |------------------------------------------9----|
C|--4---7-------2--|   |-----------------------------------------------|


Chorus
Octave chords. Refer to song for strumming rhythm/pattern
d|------------------------------------------------------------|
a|--10--12--9---10--12--9---10--12--14---15---14---12--10--9--|Chorus x2
f|--x---x---x---x---x---x---x---x---x----x----x----x---x---x--|
c|--7---9---6---7---9---6---7---9---11---12---11---9---7---6--|
G|------------------------------------------------------------|
C|------------------------------------------------------------|


Clean Breakdown A play x4
d|----------------------------|
a|-----12----10-----9-----10--|
f|--11----11----11----11------|
c|----------------------------|
G|----------------------------|
C|----------------------------|


Breakdown B play x4

Clean w/ light distortion/overdrive
d|-------------------------------------|------|
a|-----12-12----10-10----9-9----10-10--|------|ending on 4th time
f|--11-------11-------11-----11--------|--11--|
c|-------------------------------------|------|
G|-------------------------------------|------|
C|-------------------------------------|------|

play x1 before chorus
d|--10--|
a|--x---|
F|--7---|
c|------|
G|------|
C|------|


Chorus
Octave chords. Refer to song for strumming rhythm/pattern
Play with volume on guitar at about 6/10 the first time.
d|--------------------------------------------------------------|
a|---10--12--9---10--12--9---10--12--14---15---14---12--10--9---|Chorus x2
f|---x---x---x---x---x---x---x---x---x----x----x----x---x---x---|
c|---7---9---6---7---9---6---7---9---11---12---11---9---7---6---|
G|--------------------------------------------------------------|
C|--------------------------------------------------------------|


Outro A
d|------------------------------------------------------10-------------|
a|------------------------------------------------------x--------------|
f|-----------------7------------------------------------7--------------|
c|-----------------x---------------------------------------------------|
G|-4--4-4--4-4--4--5--4--4-4--4--7-6-2--0--0-0--0-0--0-----0--0-0--0-0-|
C|-4--4-4--4-4--4-----4--4-4--4--7-6-2--0--0-0--0-0--0-----0--0-0--0-0-|

outro A cont.
d|----------------|
a|----------------|
f|----------------|outro x2
c|-6h7p6-4-4h5p4--|
G|----------------|
C|----------------|

Outro B
d|------------------------------------------------|
a|------------------------------------------------|
f|------------------------------------------------|
c|-6h7p6-4-4h5p4--6h7p6-4-4h5p4--6h7p6-4-4h5p4----|
G|----------------------------------------------4-|
C|----------------------------------------------4-|

Thanks for checking out my tab.
comments
We did not receive enough feedback on this tab! Please rate:
print report bad tab
1 2 3 4 5
4 comments total. Showing first comments.
0 reply
KeggesW wrote on December 9 2011, 12:55 am

Your somewhat of a life saver. thanks for the tab[in the right tuning]. Thanks for spending your time to save some of mine. Cheers

0 reply
dreamsrja wrote on February 3 2014, 04:06 pm

When you say A and B do you mean lead and rythem guitar?

0 reply
dreamsrja wrote on February 3 2014, 04:12 pm, edited at 04:35 pm

Never mind

I want to post or [tab]
guest
You may want to rate the tab now too:
select rating
Please do not post tabs as comments. Select "correction" instead!