Oops, an error
Loading. Please wait.

On My Own Tab

1,171 views 1 this week
1 commentread comment
1 2 3 4 5
3 more votes to show rating
add to favorites
launch autoscroll
font size
0
reset
how to read this tab
guitar tuner
Autoscroll
slow
fast
+/-
esc
set tempo
stop
Help us to improve Ultimate-Guitar.com Take our survey!
×
Author
	On My Own
The Red Jumpsuit Apparatus

Intro/Chorus
Guitar I:
  [3/4]
D |-------------|-------------|-------------|-------------|-------------|
A |-------------|-------------|-------------|-------------|-------------|
F |--10-10-10---|--14-14-14---|--10-10-10---|--10-10-10---|--10-12-12---|
C |-------------|-------------|-------------|-------------|-------------|
G |--8--8--8----|--12-12-12---|--8--8--8----|--8--8--8----|--8--10-10---|
C |-------------|-------------|-------------|-------------|-------------|

                								            [2/4]
----------------------|-------------|-------------|-------------|-------------|---------|
----------------------|-------------|-------------|-------------|-------------|---------|
--------5-----5-------|--5--14-14---|--14-12-12---|--12-12-12---|--12----14---|--12----o|
----------------------|-------------|-------------|-------------|-------------|-----14-o|
--x--x--3-----3-------|--3--12-12---|--12-10-10---|--10-10-10---|--10---------|---------|
--x--x----------------|-------------|-------------|-------------|-------------|---------|


Guitar II:
  [3/4]
D |-------------|-------------|-------------|-------------|-------------|
A |-------------|-------------|-------------|-------------|-------------|
F |-------------|-------------|-------------|-------------|-------------|
C |-------------|-------------|--------3----|--3--3--3----|--3--3--3----|
G |--3--3--3----|--3--3--3----|--3--3--1----|--1--1--1----|--1--1--1----|
C |--3--3--3----|--3--3--3----|--3--3-------|-------------|-------------|

                                                                              [2/4]
----------------------|-------------|-------------|-------------|-------------|---------|
----------------------|-------------|-------------|-------------|-------------|---------|
----------------------|-------------|-------------|-------------|--------10---|--9-----o|
--x--x--5-----5-------|-------------|-------------|-------------|-------------|-----10-o|
--x--x--3-----3-------|--3--3--3----|--3--3--3----|--3--3--3----|--3----------|---------|
----------------------|--3--3--3----|--3--3--3----|--3--3--3----|--3----------|---------|

Verse
Guitar II:
[4/4]
 P.M ------------------|           P.M ------------------------------|    
|---------------|----------------|----------------|------------------|
|---------------|----------------|----------------|------------------|
|o--------------|----------------|----------------|------------------|
|o0--0--0--0----|--0--3--0~~~----|--3--3--3--3----|--3--3--0~~~------|
|-0--0--0--0----|--0--3-----1----|--3--3--3--3----|--3--3-----1------|
|-0--0--0--0----|--0-------------|--3--3--3--3----|--3---------------|

 P.M ------------------|          P.M ---------------------------------------|
----------------|----------------|----------------|---------------||---------|
----------------|----------------|----------------|---------------||---------|
----------------|----------------|----------------|--------------o||---------|
--5--5--5--5----|--5--5--0~~~----|--2--2--2--2----|--2--5--0~~~--o||--3~~~---|
--5--5--5--5----|--5--3-----1----|--2--2--2--2----|--2--3-----1---||--3~~~---|
--5--5--5--5----|--5-------------|--2--2--2--2----|--2------------||--3~~~---|

                       [3/4]
-------|-------|-------|-------------|
-------|-------|-------|-------------|
-------|-------|-------|--10-9-------|
~~~~~~~|--3~~~~|~~~~~~~|--------10---|
~~~~~~~|--2~~~~|~~~~~~~|-------------|
~~~~~~~|-------|-------|-------------|


Bridge
Guitar I:
[3/4]
|------------|-------------|-------------|-------------|
|------------|-------------|-------------|-------------|
|o7-----7----|--9-----9----|--10----10---|--12----12---|
|o---7-------|-----7-------|-----7-------|-------------|
|------------|-------------|-------------|-----12------|
|------------|-------------|-------------|-------------|

[4/4]           [3/4]                       1.____________________________
----------------|--13-12------|-------------|-------------|-------------|
----------------|--------13---|-------------|-------------|-------------|
--14----12------|-------------|--12---------|-------------|-----10-12---|
----------------|-------------|-----15-14---|--10---------|--10---------|
-----12---------|-------------|-------------|-----10-8----|-------------|
----------------|-------------|-------------|-------------|-------------|

[4/4]
_______________
---------------||-------------|-------|-------|-------|-------|-------|
---------------||-------------|-------|-------|-------|-------|-------|
--10----9-----o||-------------|-------|-------|-------|-------|-------|
-----10----10-o||--10---------|-------|-------|-------|-------|-------|
---------------||-----10-3~~~~|~~~~~~~|~~~~~~~|~~~~~~~|~~~~~~~|~~~~~~~|
---------------||-------------|-------|-------|-------|-------|-------|


Guitar II:
[3/4]
|------------|-------------|-------------|-------------|
|------------|-------------|-------------|-------------|
|o7--7--7----|--7--7--7----|--7--7--7----|--7--7--7----|
|o7--7--7----|--7--7--7----|--7--7--7----|--7--7--7----|
|-5--5--5----|--5--5--5----|--5--5--5----|--5--5--5----|
|-0--0--0----|--0--0--0----|--0--0--0----|--0--0--0----|

[4/4]                       [3/4]                        1.___________
----------------------------|-------------|-------------|-------------|
----------------------------|-------------|-------------|-------------|
--7-----7-----7-----x--x----|-------------|-------------|-------------|
--7-----7-----7-----x--x----|--3--3--3----|--3--3--3----|--3--3--3----|
--5-----5-----7-----x--x----|--3--3--3----|--3--3--3----|--3--3--3----|
--0-----0-----0-----x--x----|--3--3--3----|--3--3--3----|--3--3--3----|

             [4/4]                        [3/4]
_________________________________________
-------------|---------------------------||-------------|-------|-------|
-------------|---------------------------||-------------|-------|-------|
-------------|--------------------------o||--7--7--5~~~~|~~~~~~~|~~~~~~~|
--3--3--3----|--3-----3-----3-----x--x--o||--7--7--5~~~~|~~~~~~~|~~~~~~~|
--3--3--3----|--3-----3-----3-----x--x---||--5--5--3~~~~|~~~~~~~|~~~~~~~|
--3--3--3----|--3-----3-----3-----x--x---||--0--0-------|-------|-------|


-------|-------|-------|
-------|-------|-------|
~~~~~~~|~~~~~~~|~~~~~~~|
~~~~~~~|~~~~~~~|~~~~~~~|
~~~~~~~|~~~~~~~|~~~~~~~|
-------|-------|-------|

Final Chorus


Guitar I:
[4/4]
    /  /  /  /       /  /  /  /      /  /  /  /
|----------------|----------------|----------------|
|----------------|----------------|----------------|
|--10-10-10-10---|--10-10-10-10---|--10-10-10-10---|
|----------------|----------------|----------------|
|----------------|----------------|----------------|
|----------------|----------------|----------------|

   /  /  /  /       /  /  /  /       /  /  /  /       /  /  /  /
----------------|--13-13-13-13---|--13-13-13-13---|--12-12-12-12---|
----------------|----------------|----------------|----------------|
--10-10-10-10---|----------------|----------------|----------------|
----------------|----------------|----------------|----------------|
----------------|----------------|----------------|----------------|
----------------|----------------|----------------|----------------|

   /                /  /  /  /       /  /  /  /       /  /  /  /
--12------------|--17-17-17-17---|--17-17-17-17---|--17-17-17-17---|
----------------|----------------|----------------|----------------|
-----14-12------|----------------|----------------|----------------|
-----------14---|----------------|----------------|----------------|
----------------|----------------|----------------|----------------|
----------------|----------------|----------------|----------------|

   /  /  /  /       /  /  /  /       /  /  /  /       /  /  /  /
--17-17-18-18---|--20-20-20-20---|--20-20-20-20---|--20-20-20-20---|
----------------|----------------|----------------|----------------|
----------------|----------------|----------------|----------------|
----------------|----------------|----------------|----------------|
----------------|----------------|----------------|----------------|
----------------|----------------|----------------|----------------|

   /
--20\-----------|-------|-------|-------||
----------------|-------|-------|-------||
----------------|--7~~~~|~~~~~~~|~~~~~~~||
----------------|-------|-------|-------||
----------------|--5~~~~|~~~~~~~|~~~~~~~||
----------------|-------|-------|-------||

Guitar II:
[4/4]
----------------|----------------|----------------|----------------|
----------------|----------------|----------------|----------------|
----------------|----------------|--3--3--3--3----|--3--3--3--3----|
--3--3--3--3----|--3--3--3--3----|--3--3--3--3----|--3--3--3--3----|
--3--3--3--3----|--3--3--3--3----|--1--1--1--1----|--1--1--1--1----|
--3--3--3--3----|--3--3--3--3----|----------------|----------------|


----------------|----------------|----------------|----------------|
----------------|----------------|----------------|----------------|
----------------|----------------|--5--5--5--5----|--5--10-9-------|
--3--3--3--3----|--3--3--3--3----|--5--5--5--5----|--5--------10---|
--3--3--3--3----|--3--3--3--3----|--3--3--3--3----|--3-------------|
--3--3--3--3----|--3--3--3--3----|----------------|----------------|


----------------|----------------|----------------|----------------|
----------------|----------------|----------------|----------------|
----------------|----------------|--3--3--3--3----|--3--3--3--3----|
--3--3--3--3----|--3--3--3--3----|--3--3--3--3----|--3--3--3--3----|
--3--3--3--3----|--3--3--3--3----|--1--1--1--1----|--1--1--1--1----|
--3--3--3--3----|--3--3--3--3----|----------------|----------------|


----------------|----------------|----------------|----------------|-------|
----------------|----------------|----------------|----------------|-------|
----------------|----------------|--5--5--5--5----|--5\------------|-------|
--3--3--3--3----|--3--3--3--3----|--5--5--5--5----|--5\------------|--0~~~~|
--3--3--3--3----|--3--3--3--3----|--3--3--3--3----|--3\-8--7--3----|--0~~~~|
--3--3--3--3----|--3--3--3--3----|----------------|----------------|--0~~~~|


-------|-------||
-------|-------||
-------|-------||
~~~~~~~|~~~~~~~||
~~~~~~~|~~~~~~~||
~~~~~~~|~~~~~~~||

/		- Tremolo Pick
[4/4]		- Time Signature
P.M		- Palm Mute
\		- Slide Out
~		- Let ring
1.__		- Play only first time
|o--o|
|o--o|	- Repeat
Suggest correction
Give kudos to tab author, rate the tab!
1 2 3 4 5
comments
print report bad tab
1 comment total.
0 reply
NemX162 326 Nov 20, 2010 12:30 PM

I'm aware that some of the stuff above the Tablature is out of line (PM's and time sigs). I'm trying to get it lined back up soon! Sorry, but for those of you who don't know, the tab submit isn't exactly what-you-see-is-what-you-get.

guest
You may want to rate the tab now too:
select rating
Wanna post a correction for this tab? Suggest correction