Oops, an error
Loading. Please wait.
3,299 views 6 this week
5 commentsread comments
1 2 3 4 5
please rate
add to favorites
launch autoscroll
font size
0
reset
how to read this tab
guitar tuner
Autoscroll
slow
fast
+/-
esc
set tempo
stop
Help us to improve Ultimate-Guitar.com Take our survey!
×
Difficulty
Tuning
novice
C G C F A D
i was bored one day and this song is helping me get through a heartbreak so i thought
not tab it cuz i kinda know how to play it.. so here it is.. these are really just the
you'll have to figure out the strumming pattern and everything but it's pretty simple if 
just listen to the song

----------------------------------------------------------------------------
                             OUTSIDE - The Red Jumpsuit Apparatus
----------------------------------------------------------------------------
Tabbed by: rocker0719
Email: rocker0719@aim.com

Tuning: drop c

--INTRO--
|----------------------------------|
|---------6-----(4)-----(6)--------|
|---5-----5-----(3)-----(5)--------|
|---7-----5------3-------5---------|
|---5-----3------3-------5---------|
|---0------------3-------5---------|

-VERSE--
repeat the intro 4 times

--CHORUS--
|---------------------------------------|
|---(1)-----(4)-----(6)-----(6)---------|
|---(0)-----(3)------5------(5)---------|
|----0-------3-------5-------5----------| (repeat once)
|----0-------3-------3-------5----------|
|----0-------3---------------5----------|

--BRIDGE--
repeat intro

--VERSE--
repeat intro 4 times

--CHORUS--
(note: a bit of a strumming change)

--VERSE--
repeat intro 4 times (note: first two times, play aggresivley, second two times, play soft)

--CHORUS--
end on the last chord of the chorus:
|-----------|
|----(6)----|
|----(5)----|
|-----5-----|
|-----5-----|
|-----5-----|

this is a really simple yet powerful song, i love it and it's been helping me get
some hard times. i hope this was helpful, just comment it or e-mail me for any problems or
thanks.
Suggest correction
What's this?
You can suggest a correction to this tab. Community and Mods will review your correction and vote to approve or reject it.
comments
We did not receive enough feedback on this tab! Please rate:
print report bad tab
1 2 3 4 5
5 comments total. Showing first comments.
0 reply
sjmcg316 110 wrote on July 25 2008, 12:06 pm

hmm, looks a good tab but what album is the song off of? I don't think I've heard it

0 reply
rocker0719 13 wrote on July 29 2008, 04:52 pm

it's off of some album they came out with before don't you fake it, it's called red jumpsuit apparatus, i've looked for it at stores and stuff and can't find it..

btw, after i submitted this i realized the g, b, and e strings weren't tuned down ha, so yea.. i'll have to fix this or submit another one

0 reply
rocker0719 13 wrote on July 31 2008, 05:11 pm

alright well they rejected the other one i submitted so here's the corrections:

|--------(3)-----------------------|
|---------3-----(6)-----(8)--------|
|---7-----5-----(5)-----(7)--------|
|---7-----5------3-------5---------|
|---5-----3------3-------5---------|
|---0------------3-------5---------|

|-------------------(3)-----------------|
|---(3)-----(6)-----(3)-----(8)---------|
|---(2)-----(5)------5------(7)---------|
|----0-------3-------5-------5----------|
|----0-------3-------3-------5----------|
|----0-------3---------------5----------|

|-----------|
|----(8)----|
|----(7)----|
|-----5-----|
|-----5-----|
|-----5-----|

k, hope that helped

guest
You may want to rate the tab now too:
select rating
Please do not post tabs as comments. Select "correction" instead!