Oops, an error
Loading. Please wait.

Pen And Paper Bass Tab

version 1
version 1

Whole song

Interactive

1,239 views 1 this week
no commentswrite comment
1 2 3 4 5
worth learning
x 2
add to favorites
launch autoscroll
font size
0
reset
guitar tuner
Tab Pro tools
  • play this tab
  • loop segment
  • change instrument
  • show fretboard
  • metronome
Autoscroll
slow
fast
+/-
esc
set tempo
stop
Contributor
Difficulty
Tuning
novice
C G C F A D
PEN AND PAPER by THE RED JUMPSUIT APPARATUS

This song is quite simple and is great fun to play. Its in Drop C (CGCF)

Intro (0:00):

F|-----------|
C|-----------|
G|-----------|
C|--0~-------| X2

1st Verse (0:12):
F|---------------------------------|
C|---------------------------------|
G|---------------------------------|
C|-0(x16)-----------------5(x16)---|x2
  (C)                    (G)

Pre Chorus (0:35)
F|--------------------------------------|
C|--------------------------------------|
G|------------------------5-5-5-5-5--5~-|
C|--0--0--0---0-0-0-0--0----------------|
    (C)                  (C)

Chorus (0:40)
F|---------------------------------|
C|---------------------------------|
G|---------------------------------|
C|-0(x16)-----------------5(x16)---|x2
  (C)                    (G)

The song pretty much repeats after this so just play through the verse, pre-chorus and 
again.

Bridge (1:50)
F|--------------------------------------------------------------|
C|--------------------------------------------------------------|
G|-2-2-2-2-2-2-4-5-5-5-5-5-5-5-5--------------------------------|
C|-------------------------------5-5-5-5-5-5-5-5-7-7-7-7-7-7-7--|x2
  (A)         (B) (C)           (F)              (G)

Interlude (2:20)

no bass

Play Chorus 4 more times

End With:
F|------------|
C|------------|
G|------------|
C|--9--7--0---|
   (A)(G)(C)
comments
We did not receive enough feedback on this tab! Please rate:
print report bad tab
1 2 3 4 5
I want to post or [tab]
guest
You may want to rate the tab now too:
select rating
Please do not post tabs as comments. Select "correction" instead!