Oops, an error
Loading. Please wait.

Pleads And Postcards Tab

version 1
version 1

Whole song

1,756 views 1 this week
no commentswrite comment
1 2 3 4 5
please rate
add to favorites
launch autoscroll
font size
0
reset
how to read this tab
guitar tuner
Autoscroll
slow
fast
+/-
esc
set tempo
stop
Help us to improve Ultimate-Guitar.com Take our survey!
×
Author
Difficulty
Tuning
novice
C G C F A D
-------------------------------------------------------------------------------
               Pleads and Postcards by The Red Jumpsuit Apparatus
-------------------------------------------------------------------------------
Tabbed by: me, of course.
Email: cjmeserole@yahoo.com

Tuning: drop C
UPDATE: sorry, up top there^ it said the tuning was drop C standard.  that was my fault, I choose
the wrong tuning when I submitted the tab.  it's actually in Drop C (CGCFAD).  sorry =/

I didn't tab out all the lead cause it's hard to hear.  I'll (hopefully) get it all 
out eventually, but I wanted to get what I had up so people can play it now.


Intro:
Gtr. 1
e|----------------------------------------------------------------------------|
B|----------------------------------------------------------------------------|
G|----------------------------------------------------------------------------|
D|--99999---4--4444/5555--77777/9999-------(x2)-------------------------------|
A|--99999---4--4444/5555--77777/9999------------------------------------------|
E|--99999---4--4444/5555--77777/9999------------------------------------------|

Gtr. 2 (comes in on second time)
e|--10-------10-------10-------10-------10/121212-7-----7-----7-----7-----7/101010---|
B|-----12-------12-------12-------12----------------8-----8-----8-----8--------------|
G|--------11-------11-------11-------11---------------9-----9-----9-----9------------|
D|-----------------------------------------------------------------------------------|
A|-----------------------------------------------------------------------------------|
E|-----------------------------------------------------------------------------------|


Verse:

Gtr. 1
e|---------------------------------------------------------------------------|
B|---------------------------------------------------------------------------|
G|----------14141414141414------------1111111111119999-----------------------|
D|--7/9999--x-x-x-x-x-x-x---4-4/5555--x-x-x-x-x-x-xxxx-----------------------|
A|--7/9999--12121212121212--4-4/5555--9-9-9-9-9-9-7777-----------------------|
E|--7/9999------------------4-4/5555-----------------------------------------|

Gtr. 2 (I spaced out the octave chords so they would line up with Gtr. 1's, but it's the 
strum pattern)
e|---------------------------------------------------------------------------|
B|---------------------------------------------------------------------------|
G|----------7-7-7-7-7-7-7-------------7-7-7-7-7-76666------------------------|
D|--7/9999--x-x-x-x-x-x-x---4-4/5555--x-x-x-x-x-xxxxx------------------------|
A|--7/9999--5-5-5-5-5-5-5---4-4/5555--5-5-5-5-5-54444------------------------|
E|--7/9999------------------4-4/5555-----------------------------------------|


Gtr. 1
e|---------------------------------------------------------------------------|
B|---------------------------------------------------------------------------|
G|----------14141414141414------------11111111111212121214141414-------------|
D|--7/9999--x-x-x-x-x-x-x---4-4/5555--x-x-x-x-x-x-x-x-x-x-x-x-x--------------|
A|--7/9999--12121212121212--4-4/5555--9-9-9-9-9-1010101012121212-------------|
E|--7/9999------------------4-4/5555-----------------------------------------|

Gtr. 2
e|---------------------------------------------------------------------------|
B|---------------------------------------------------------------------------|
G|----------7-7-7-7-7-7-7-------------7-7-7-7-7-9-9-9-911111111--------------|
D|--7/9999--x-x-x-x-x-x-x---4-4/5555--x-x-x-x-x-x-x-x-x-x-x-x-x--------------|
A|--7/9999--5-5-5-5-5-5-5---4-4/5555--5-5-5-5-5-7-7-7-7-9-9-9-9--------------|
E|--7/9999------------------4-4/5555-----------------------------------------|


"Sometimes i feel like i would die..."
e|----------------------------------------------------------------------------|
B|----------------------------------------------------------------------------|
G|----------------------------------------------------------------------------|
D|--99999---4--4444/5555--77777/9999---------(x2)-----------------------------|
A|--99999---4--4444/5555--77777/9999------------------------------------------|
E|--99999---4--4444/5555--77777/9999------------------------------------------|

Gtr. 2 (comes in on second time)
figure out the palm muting, it's pretty straightforward
e|--10-------10-------10-------10-------10/121212-7-----7-----7-----7-----7/101010---|
B|-----12-------12-------12-------12----------------8-----8-----8-----8--------------|
G|--------11-------11-------11-------11---------------9-----9-----9-----9------------|
D|-----------------------------------------------------------------------------------|
A|-----------------------------------------------------------------------------------|
E|-----------------------------------------------------------------------------------|

Pre Chorus

Gtr. 1
The palm muting and strumming is pretty straightforward here
e|---------------------------------------------------------------------------|
B|---------------------------------------------------------------------------|
G|---------------------------------------------------------------------------|
D|--5~-5--5-5-55-4~-4--4-4-44-5~-5--5-5-55--777777777777777------------------|
A|--5~-5--5-5-55-4~-4--4-4-44-5~-5--5-5-55--777777777777777------------------|
E|--5~-5--5-5-55-4~-4--4-4-44-5~-5--5-5-55--777777777777777------------------|

Chorus

Gtr. 1
e|---------------------------------------------------------------------------|
B|---------------------------------------------------------------------------|
G|---------------------------------------------------------------------------|
D|--9-99-9-99-99-9-99-7-77-7-77-77-7-77-0-00-0-00-00-0-00-5-55--5-55--5/7----| x2
A|--9-99-9-99-99-9-99-7-77-7-77-77-7-77-0-00-0-00-00-0-00-5-55--5-55--5/7----|
E|--9-99-9-99-99-9-99-7-77-7-77-77-7-77-0-00-0-00-00-0-00-5-55--5-55--5/7----|

Verse 2 is the same as Verse 1, just in a different order, and the palm muted lead is 
the entire first half.  Listen close and you can figure it out pretty easily.

Pre-Chorus is the same

Chorus

Bridge

Gtr. 1
e|--------------------------------------------------------------------------------|
B|--------------------------------------------------------------------------------|
G|--------------------------------------------------------------------------------|
D|--9-99-9-99-99-9-99-7-77-7-77-77-7-77-0-00-0-00-00-0-00-5-55--5-55-5-55-55-5-55-| x2
A|--9-99-9-99-99-9-99-7-77-7-77-77-7-77-0-00-0-00-00-0-00-5-55--5-55-5-55-55-5-55-|
E|--9-99-9-99-99-9-99-7-77-7-77-77-7-77-0-00-0-00-00-0-00-5-55--5-55-5-55-55-5-55-|


"This could be the last time...."
Gtr. 1
e|----------------------------------------------------------------------------|
B|----------------------------------------------------------------------------|
G|----------------------------------------------------------------------------|
D|--99999---4--4444/5555--77777/9999-------(x2)-------------------------------|
A|--99999---4--4444/5555--77777/9999------------------------------------------|
E|--99999---4--4444/5555--77777/9999------------------------------------------|

Gtr. 2 (plays both times)
e|--10-------10-------10-------10-------10/121212-7-----7-----7-----7-----7/101010---|
B|-----12-------12-------12-------12----------------8-----8-----8-----8--------------|
G|--------11-------11-------11-------11---------------9-----9-----9-----9------------|
D|-----------------------------------------------------------------------------------|
A|-----------------------------------------------------------------------------------|
E|-----------------------------------------------------------------------------------|


repeat the chorus again and end on:
e|---------------------------------------------------------------------------|
B|---------------------------------------------------------------------------|
G|---------------------------------------------------------------------------|
D|--5-5-55-5-5-55-5/7--5-5-55-5-5-55-5/7--0~---------------------------------|
A|--5-5-55-5-5-55-5/7--5-5-55-5-5-55-5/7--0~---------------------------------|
E|--5-5-55-5-5-55-5/7--5-5-55-5-5-55-5/7--0~---------------------------------|
        ..     ..          ..     ..

that's the song!  if you have anything i'm missing, email me or leave a comment, and i 
put it in and give you credit for it.


| /  slide up
| \  slide down
| h  hammer-on
| p  pull-off
| ~  vibrato
| +  harmonic
|  .  palm mute
=============================================================================
Suggest correction
Give kudos to tab author, rate the tab!
1 2 3 4 5
comments
print report bad tab
guest
You may want to rate the tab now too:
select rating
Wanna post a correction for this tab? Suggest correction