Oops, an error
Loading. Please wait.

Pull Me Back Tab

5,434 views 3 this week
8 commentsread comments
1 2 3 4 5
excellent!
x 3
add to favorites
launch autoscroll
font size
0
reset
how to read this tab
guitar tuner
Tab Pro tools
  • play this tab
  • loop segment
  • change instrument
  • show fretboard
  • metronome
Autoscroll
slow
fast
+/-
esc
set tempo
stop
Contributor
Tabbers playing skills
advanced +
Pull me back by The Red Jumpsuit Apparatus


Note-

for right handers:v/v

*-palm mute
#^*=bend + right thumb harmonics
#* = right thumb harmonics
~-let ring/vibrato
/-slide
h-hammer on
p-pull off
12^(14)-14 is not picked just bend to reach the note of 14
(12)/////-12 ia not picked ...start pick slide on the 12th fret
(#) - optional i dunno if it's really picked...

Tuning-

GtrI  ( e b g D A D )
GtrII ( e b g D A D )

Intro-
1.
GtrI
|------------------------------------------------------------|
|------------------------------------------------------------|
|-----7~-------------------------7~--------------------------|
|-----7~-------------------------7~--------------------------|
|-0---5~---------------------0---5~---(12)/////////////////--|
|-0--------------------------0--------(12)/////////////////--|
  *                          *
GtrII
|------------------------------------------------------------|
|-----3~-------------------------3~--------------------------|
|-----2~-------------------------2~--------------------------|
|-----0~-------------------------0~--------------------------|
|-0---0~---------------------0---0~---(12)/////////////////--|
|-0---0~---------------------0---0~---(12)/////////////////--|
  * 
2.
GtrI
|------------------------------------------------------------------------|
|------------------------------------------------------------------------|
|------------------------------------------------------------------------|
|-0-0-0-0-0-0-0-0-3-3-3-3-5-5-5-5-----0-0-0-0-0-0-0-0-3-3-3-3-5-5-5-5----|2x
|-0-0-0-0-0-0-0-0-3-3-3-3-5-5-5-5-----0-0-0-0-0-0-0-0-3-3-3-3-5-5-5-5----|
|-0-0-0-0-0-0-0-0-3-3-3-3-5-5-5-5-----0-0-0-0-0-0-0-0-3-3-3-3-5-5-5-5----|
                         
GtrII
|------------------------------------------------------------|
|------------------------------------------------------------|
|------------------------------------------------------------|
|-----------(5)/7-7-77---33-3-333---5--55--5^(7)*------------|
|-5-5---7/8--------------------------------------------------|
|------------------------------------------------------------|


|------------------------------------------------------------|
|------------------------------------------------------------|
|------------------------------------------------------------|
|------------5)/7-7-77---33-3-333---/10--10-10---8--7~-------|
|-5-5---7/8--------------------------------------------------|
|------------------------------------------------------------|

|------------------------------------------------------------|
|------------------------------------------------------------|
|-7-7---9/10--(12)/14-1414---1010-10-1010--/12-12--12^(14)*--|
|------------------------------------------------------------|
|------------------------------------------------------------|
|------------------------------------------------------------|

|------------------------------------------------------------------------|
|------------------------------------------10--13p10----13p10----13^(15)-|
|-7-7---9/10--12~^(14)--12*--/1010--10h12------------12-------12---------|
|------------------------------------------------------------------------|
|------------------------------------------------------------------------|
|------------------------------------------------------------------------|

Verse-
GtrI
|------------------------------------------------------------|
|------------------------------------------------------------|
|------------------------------------------------------------|
|----0~-------3~-----5~----------0~-------3~-----5~----------|2x
|-0--0~----3--3~-----5~-------0--0~----3--3~-----5~----------|
|-0--0~----3--3~-----5~-------0--0~----3--3~-----5~----------|
  *        *                  *        *

GtrII(0:38)
|-13~-----12~------10~---------------------------------------|
|------------------------------------------------------------|
|------------------------------------------------------------|
|------------------------------------------------------------|
|------------------------------------------------------------|
|------------------------------------------------------------|

GtrII(0:46)
|------------------------------------------------------------|
|-------------------------------10/13----13^(15)~------------|
|-7-------9--------10-----12---------------------------------|
|------------------------------------------------------------|
|------------------------------------------------------------|
|------------------------------------------------------------|


Chorus-


GtrI
|-----------------------------------------------------------------------|
|-----------------------------------------------------------------------|
|-7777-12121212-14141414-10-9-7-9---7777-12121212-141414-1010-1414-1717-|
|-----------------------------------------------------------------------|2x
|-5555-10101010-12121212-8--7-5-7---5555-10101010-121212-8-8--1212-1515-|
|-----------------------------------------------------------------------|
GtrII
|-----------------------------------------------------------------|
|-----------------------------------------------------------------|
|-----------------------------------------------------------------|
|-3-3-3-3-0-0-0-0-5-5-5-5-5-5-5-5-3-3-3-3-0-0-0-0-5-5-5-5-5-5-5-5-|2x
|-1-1-1-1-0-0-0-0-3-3-3-3-3-3-3-3-1-1-1-1-0-0-0-0-3-3-3-3-3-3-3-3-|
|---------0-0-0-0-------------------------0-0-0-0-----------------|

Verse2

GtrI
|------------------------------------------------------------|
|------------------------------------------------------------|
|------------------------------------------------------------|
|----0~-------3~-----5~----------0~-------3~-----5~----------|2x
|-0--0~----3--3~-----5~-------0--0~----3--3~-----5~----------|
|-0--0~----3--3~-----5~-------0--0~----3--3~-----5~----------|
  *        *                  *        *
GtrII(1:19)
|--------------13~-------------------------------------------|
|------------------------------------------------------------|
|-17~-----14~----------14~---14--17---14--17-----------------|
|------------------------------------------------------------|
|-19------12-----------12~---12--15---12--15-----------------|
|------------------------------------------------------------|


|----------------------------------------------------|
|----------------------------------------------------|
|-7~------9/10-10^(12)^(12)~---7^*-------------------|
|----------------------------------------------------|
|----------------------------------------------------|
|----------------------------------------------------|


Chorus-
Pre-solo-do intro1

Solo-

GtrI
|------------------------------------------------------------------------|
|------------------------------------------------------------------------|
|------------------------------------------------------------------------|
|-0-0-0-0-0-0-0-0-3-3-3-3-5-5-5-5-----0-0-0-0-0-0-0-0-3-3-3-3-5-5-5-5----|2x
|-0-0-0-0-0-0-0-0-3-3-3-3-5-5-5-5-----0-0-0-0-0-0-0-0-3-3-3-3-5-5-5-5----|
|-0-0-0-0-0-0-0-0-3-3-3-3-5-5-5-5-----0-0-0-0-0-0-0-0-3-3-3-3-5-5-5-5----|
GtrII
|------------------------------------------------------------|
|------------------------------------------------------------|
|-7-7---9/10--(12)/14-1414---1010-10-1010--/12-12--12^(14)*--|
|------------------------------------------------------------|
|------------------------------------------------------------|
|------------------------------------------------------------|

|------------------------------------------------------------------------|
|------------------------------------------10--13p10----13p10----13^(15)-|
|-7-7---9/10--(12)/14-1414-/10-1010--10h12------------12-------12--------|
|------------------------------------------------------------------------|
|------------------------------------------------------------------------|
|------------------------------------------------------------------------|

|--------10--------------10--------------10--------------10-------|
|-10--13----13p10-10--13----13p10-10--13----13p10-10--13----13p10-|
|-12^-------------12^-------------12^-------------12^-------------|
|-----------------------------------------------------------------|
|-----------------------------------------------------------------|
|-----------------------------------------------------------------|

|-13p10---13p10---13p10---13p10---13p10----15^(17)15-13------|
|------13-------13-----13------13-------13--------------15---|
|------------------------------------------------------------|
|------------------------------------------------------------|
|------------------------------------------------------------|
|------------------------------------------------------------|

|-------------13----------------------------------------------------|
|-13-15-13-15-----13b--------------------------------------15b*-13*-|
|---------------------14-13-12-------------------10---10------------|
|---------------------------------------10h11h12---12---(12)--------|
|------------------------------10h11h12-----------------------------|
|-------------------------------------------------------------------|


Repeat Chorus-

ChorusII

GtrI
|--------------------------------------------------------------------------|
|--------------------------------------------------------------------------|
|-14141414-17171717-141414--1515-1212-9---7777-14141414-1212-1010-9-15-14~-|
|--------------------------------------------------------------------------|
|-12121212-15151515-121212--1313-1010-7---5555-12121212-1010-8-8--7-13-12~-|
|--------------------------------------------------------------------------|

|-------------------------------------|
|-------------------------------------|
|-----7~-------------------------7~---|
|-----7~-------------------------7~---|
|-0---5~---------------------0---5~---|
|-0--------------------------0--------|
  *                          *
GtrII
|--------------------------------------------------|
|--------------------------------------------------|
|--------------------------------------------------|
|-3-3-3-3-0-0-0-0-5-5-5-5-5-5-5-5-3-3-3-3-0-0-0-0--|
|-1-1-1-1-0-0-0-0-3-3-3-3-3-3-3-3-1-1-1-1-0-0-0-0--|
|---------0-0-0-0-------------------------0-0-0-0--|

|-13p10---13p10---13p10---13p10---13p10----15^(17)15-13------|
|------13-------13-----13------13-------13--------------15~--|
|------------------------------------------------------------|end
|------------------------------------------------------------|
|------------------------------------------------------------|
|------------------------------------------------------------|

by RJA Phils. - 09283150081
comments
We did not receive enough feedback on this tab! Please rate:
print report bad tab
1 2 3 4 5
8 comments total. Showing first comments.
0 reply
eltyr18 wrote on January 29 2009, 02:38 pm

is this Drop D or C?

I think I might know already though, but I just want to make sure

0 reply
doobidoo wrote on January 29 2009, 08:17 pm

drop D

0 reply
eltyr18 wrote on January 30 2009, 02:38 pm

kay, thanks, and great tab man.

I want to post or [tab]
guest
You may want to rate the tab now too:
select rating
Please do not post tabs as comments. Select "correction" instead!