Oops, an error
Loading. Please wait.

Seventeen Aint So Sweet bass

2,275 views 1 this week
3 commentsread comments
1 2 3 4 5
x 5
add to favorites
×
Save as Personal and add changes to this tab that will be seen only by you. Learn more ›
×
You can save this tab as Personal to edit and correct it or add notes. All changes will be seen only by you. Learn more »
launch autoscroll
font size
0
reset
guitar tuner
edit
Autoscroll
slow
fast
+/-
esc
set tempo
stop
Tabbed By : Xcrimson_ghostX
e-mail: skawful27@aim.com

Tuning: standard

intro x1
G|----------------|
D|----------------|
A|----------------|
E|--5~~~---3~~~---|

verse
G|--------------------------------------------------------|
D|--------------------------------------------------------|
A|--------7---7-3---3-3--3-5-2-------7---7-3--3-35555-2---|
E|--5---5----------------------5---5----------------------|

prechorus
G|-----------------------------------------------------------------|
D|-----------------------------------------------------------------|
A|---------------------------------------------3~~~--2~~~22222222--|
E|--5~~~--3~~~-1~-3~-5~~~--3~~~--1~~~-33333333---------------------|

chorus
G|-------------------------------------------------------------------|
D|-------------------------------------------------------------------|
A|-------------------------------------------------------------------|
E|--5-5-5555-55-555-3-3-3333-33-333-5-5-5555-55-555-3-3-3333-33-333--|

G|-------------------------------------------------------------------|
D|-------------------------------------------------------------------|
A|-------------------------------------------------------------------|
E|--1-1-1111-11-111-3-3-3333-33-333-5-5-5555-55-555-3-3-3333-33-333--|

verse
G|----------------------------------------------------|
D|----------------------------------------------------|
A|-------3--3--------------------3--3-----------------|
E|--5--5------1--1-1--1-3-1-5--5------1--1-188888888--|

prechorus
G|-----------------------------------------------------------------|
D|-----------------------------------------------------------------|
A|-------------------------3~~~----------------3~~~--2~~~22222222--|
E|--5~~~--3~~~-1~-3~-5~~~--------1~~~-33333333---------------------|

chorus
G|-------------------------------------------------------------------|
D|-------------------------------------------------------------------|
A|-------------------------------------------------------------------|
E|--5-5-5555-55-555-3-3-3333-33-333-5-5-5555-55-555-3-3-3333-33-333--|

G|-------------------------------------------------------------------|
D|-------------------------------------------------------------------|
A|-------------------------------------------------------------------|
E|--1-1-1111-11-111-3-3-3333-33-333-5-5-5555-55-555-3-3-3333-33-333--|

bridge
G|-----------------------------------------------------------------------|
D|-----------------------------------------------------------------------|
A|-----------------------------------------------------------------------|
E|--11-11-1-3333-3-3-55-55-5-88775577-11-11-1-333-33-3-55-55-5-88775375--|

G|-----------------------------------------------------------------|
D|-----------------------------------------------------------------|
A|-----------------------------------------------------------------|
E|--11-11-1-33-33-3-55-55-5-88775577-11-11-1-33-33-3-55-55-5-8~~~--|

chorus
G|-------------------------------------------------------------------|
D|-------------------------------------------------------------------|
A|-------------------------------------------------------------------|
E|--5-5-5555-55-555-3-3-3333-33-333-5-5-5555-55-555-3-3-3333-33-333--|

G|-------------------------------------------------------------------|
D|-------------------------------------------------------------------|
A|-------------------------------------------------------------------|
E|--1-1-1111-11-111-3-3-3333-33-333-5-5-5555-55-555-3-3-3333-33-333--|

G|-------------------------------------------------------------------|
D|-------------------------------------------------------------------|
A|-------------------------------------------------------------------|
E|--5-5-5555-55-555-3-3-3333-33-333-5-5-5555-55-555-3-3-3333-33-333--|

G|------------------------------------------|
D|------------------------------------------|
A|------------------------------------------|
E|--1-1-1111-11-111-3-3-3333-33-333-5~~~~~--|

really really really really easy. you better be able to play this.

| /  slide up
| \  slide down
| h  hammer-on
| p  pull-off
| ~  vibrato
| +  harmonic
| x  Mute note
===============================================================================

            
            
Suggest correction
Creating personal tab
Creating personal tab
You can edit any tab online and save it as your Personal.

You can edit, replace or remove any tab part or add personal notes – all changes will be seen only by you.

Personal tabs can be accessed anytime from any device, even offline.
Learn more »
comments
print report bad tab
3 comments total.
0 reply
roguebassist 176 Jan 09, 2007 02:30 PM

Easy good, fun. But, I'm just having trouble with the bridge, It might be because I'm sleepy. 5* man, 5*

0 reply
jrballa12 52 Jun 06, 2007 11:18 AM

i think that the verses on this are wrong but it sounds like the low f for the verses cant remember for what but thats what i got for it

0 reply
westrich.m 10 Oct 28, 2009 04:53 PM

the end with repeats?

guest
You may want to rate the tab now too:
select rating
Wanna post a correction for this tab? Suggest correction