Oops, an error
Loading. Please wait.

Seventeen Aint So Sweet Tab

version 1
version 1

Whole song

12,703 views 1 this week
5 commentsread comments
1 2 3 4 5
accurate
x 10
add to favorites
launch autoscroll
font size
0
reset
how to read this tab
guitar tuner
Tab Pro tools
  • play this tab
  • loop segment
  • change instrument
  • show fretboard
  • metronome
Autoscroll
slow
fast
+/-
esc
set tempo
stop
Contributor
Difficulty
novice
Seventeen ain't so sweet
the Red Jumpsuit Apparatus
Don't you fake it

Intro: Rhythm (no distorion)
|---------------------------------|
|---------------------------------|
|--5555555555---------------------|
|--5555555555--55555555555--------|
|--3333333333--55555555555--------|
|--------------33333333333--------|

lead (no distorion)
|---------------------------------|
|---------------------------------|
|--5555555555----------999--------|
|--5555555555--5555555-xxx--xxxx--|
|--3333333333--5555555-777--xxxx--|
|--------------3333333------xxxx--|

Verse: Both
|-----------------------|
|-----------------------|
|--5-5/9-9\5-7\5-7-9-5--|(x2)
|--x-x-x-x-x-x-x-x-x-x--|
|--3-3/7-7\3-5\3-5-7-3--|
|-----------------------|

Post verse: Rhythm
|--------------------------|----|-------------|
|--------------------------|----|-------------|
|--555555------------------|(x2)|--9999-9999--|
|--555555--555555--333333--|----|--xxxx-xxxx--|
|--333333--555555--333333--|----|--7777-7777--|
|----------333333--111111--|----|-------------|
PM                                 ....

Pre-chorus: Both
|-------|
|-------|
|--5--4-|
|--5--4-|
|--3--2-|
|-------|

Chorus
|-------------------------------------|
|-------------------------------------|
|--5555555555555555-------------------|
|--5555555555555555-5555555555555555--|(x2)
|--3333333333333333-5555555555555555--|
|-------------------3333333333333333--|

|-------------------------------------------------|
|-------------------------------------------------|
|--5-5-5-5-5-5-5-5--------------5-5-5/7-9\5-9-12--|
|--5-5-5-5-5-5-5-5-5-5-5-5-xxxx-x-x-x-x-x-x-x--x--|
|--3-3-3-3-3-3-3-3-5-5-5-5-xxxx-3-3-3/5-7\5-7-10--|
|------------------3-3-3-3-xxxx-------------------|

Verse 2: Rhythm
|-----------------------|
|-----------------------|
|-----------------------|
|--5-5/9-9\5-7\5-7-9-5--|
|--5-5/9-9\5-7\5-7-9-5--|
|--3-3/7-7\3-5\3-5-7-3--|

Post verse

Pre-chorus (with pick slide from lead guitar)

Chorus 

Bridge
|--------------|----|---------------------------|
|--------------|----|---------------------------|
|--121212-1212-|----|--99999999-1010101010101010|
|--x-x-x--x-x--|(x6)|--xxxxxxxx-x-x-x-x-x-x-x-x-|
|--101010-1010-|----|--77777777-8-8-8-8-8-8-8-8—|
|--------------|----|---------------------------|
PM . . .

|--------------------------------------------------------------|
|--------------------------------------------------------------|
|-99999999-1212121212121212-999999999-7777777-999999-5---------|
|-xxxxxxxx-x-x-x-x-x-x-x-x--xxxxxxxx-xxxxxxxx-xxxxxx-5---xx-xx-|
|-77777777-1010101010101010-77777777-55555555-777777-3---xx-xx-|
|--------------------------------------------------------xx-xx-|

Chorus (x2)

Outro:
|--------|----|----|
|--------|----|----|
|-555555-|----|-12-|
|-555555-|(x7)|-12-|
|-333333-|----|-10-|
|--------|----|----|

Enjoy
(if parts are wrong e-mail me at joanne@leapsafely.com)
comments
print report bad tab
5 comments total. Showing first comments.
0 reply
*Jordie1* wrote on December 2 2006, 02:00 am

gREAT EFFORT...i THINK IT'S ALRIGHT..

0 reply
beautifulscars wrote on March 5 2007, 10:07 am

good tab man i love this song

0 reply
geoguitar wrote on June 11 2007, 04:59 pm

|---------------------------------|
|---------------------------------|
|----55555555--5-555555555----xxxx|
|--2-22222222--2-222222222----xxxx|
|--0-----------x-xxxxxxxxx----xxxx|
|--------------5-555555555--------|

I think the intro is more like that. drod d tuning if course.

I want to post or [tab]
guest
You may want to rate the tab now too:
select rating
Please do not post tabs as comments. Select "correction" instead!