Oops, an error
Loading. Please wait.

Twenty Hour Drive Tab

version 1
version 1

Whole song

708 views 3 this week
2 commentsread comments
1 2 3 4 5
worth learning
x 2
add to favorites
launch autoscroll
font size
0
reset
how to read this tab
guitar tuner
Tab Pro tools
  • play this tab
  • loop segment
  • change instrument
  • show fretboard
  • metronome
Autoscroll
slow
fast
+/-
esc
set tempo
stop
Contributor
Difficulty
Tuning
intermediate
D A D G B E
The Red Jumpsuit Apparatus
Twenty Hour Drive
Zachary Snow

Notes: Not 100%, but close enough. Song is actually played in Drop C. Feel free
to correct me.

Intro:
(Listen to song for timing)

E|-----------------------------------------------|
B|-----------------------------------------------|
G|-----------------------------------------------|
D|------5----------------------------------------|
A|-3----3-5----7---------------------------------|
D|-3------5----7---------------------------------|

Verse:
(Listen to song for timing)

E|-----------|
B|-----------|
G|-----------|
D|---5-------|
A|-3-3-5-5---| x2
D|-3---5-5---|
   pm........

then

(play notes and release)
E|-----------|
B|-----------|
G|-----------|
D|---5-------|
A|-3-3-5-5---|
D|-3---5-5---|

PreChorus:
(Not really sure on this, but it sounds close.)

E|---------------------|
B|---------------------|
G|---------------------|
D|---------------------|
A|-3-2---5-3---3-2---5-|
D|-3-2---5-3---3-2---5-|

Chorus:
(Listen to song for timing)

E|-----------------------------------------------|
B|-----------------------------------------------|
G|-----------------------------------------------|
D|-5---------------------------------------------|
A|-3--5--7--3-5----------------------------------|
D|----5--7--3-5----------------------------------|

(End with)

E|-----------------------------------------------|
B|-----------------------------------------------|
G|-----------------------------------------------|
D|-5--5------------------------------------------|
A|-3--2------------------------------------------|
D|-----------------------------------------------|
comments
We did not receive enough feedback on this tab! Please rate:
print report bad tab
1 2 3 4 5
2 comments total.
0 reply
spencer Cr wrote on November 11 2006, 11:53 am

you for got the bridge: "starving for effection..."
|----------------------------|
|----------------------------|
|--------55555---------------|
|--33333-55555-555555555555--|
|--33333-33333-555555555555--|
|--33333-------555555555555--|

but thanks anyway.

0 reply
snow007 wrote on November 11 2006, 12:19 pm

That's actually the end of the song too. I should redo this tab but I'm a little lazy.

I want to post or [tab]
guest
You may want to rate the tab now too:
select rating
Please do not post tabs as comments. Select "correction" instead!