Oops, an error
Loading. Please wait.

Twenty Hour Drive Tab

version 2
version 2

Whole song

704 views 1 this week
1 commentread comment
1 2 3 4 5
1 last vote to show rating
add to favorites
launch autoscroll
font size
0
reset
how to read this tab
guitar tuner
Autoscroll
slow
fast
+/-
esc
set tempo
stop
Help us to improve Ultimate-Guitar.com Take our survey!
×
intro:

0:01
e-------------------------------|
B-------------------------------|
G-------------------------------|
D-3-3-3---3-5555-5-5-5---5-7777-|
A-3-3-3---3-3333-5-5-5---5-7777-|
E-------------------------------|

e-------------------------------|
B-------------------------------|
G-------------------------------|
D-3-3-3---3-5555-5-5--5-5--77---|
A-3-3-3---3-3333-5-5--5-5--77---|
E-------------------------------|

e-------------------------------|
B-------------------------------|
G-------------------------------|
D-3-3-3---3-5555-5-5-5---5-7777-|
A-3-3-3---3-3333-5-5-5---5-7777-|
E-------------------------------|

e-------------------------------|
B-------------------------------|
G-------------------------------|
D-3-3-3---3-5555----------5-4---|
A-3-3-3---3-3333----------3-2---|
E-------------------------------|

0:18 - verse 1
e-------------------------------|
B-------------------------------|
G-------------------------------|
D-333-3---555-5---555-5---555-5-|
A-333-3---333-3---555-5---555-5-|
E-------------------------------|
  ...     ...     ...     ...

e--------------------------------|
B--------------------------------|
G--------------------------------|
D-333-3---555-5---555-5---555-55-|
A-333-3---333-3---555-5---555-55-|
E--------------------------------|
  ...     ...     ...     ...

e------------------------------------------\----|
B-----------------------------------------------| \
G------------------------------------------  \--| x2
D-3333-33--x-5555-55--x-5555-55--x-5555-55------|  /
A-3333-33--x-3333-33--x-5555-55--x-5555-55------| /
E-----------------------------------------------|
  ....       ....       ....       ....

e----------------------------------------|
B----------------------------------------|
G----------------------------------------|
D-2-2-2-22---3-3-3-33---2-2-2-22---3-5-7-|
A-2-2-2-22---3-3-3-33---2-2-2-22---3-5-7-|
E----------------------------------------|
      .          .          .

0:44 - chorus
e-----------------------------------------------------|
B-----------------------------------------------------|
G-----------------------------------------------------|
D-5-55-5-5-5---5-55-5-5-5---7-77-7-7-7---3-33-3-3-3---|
A-3-33-3-3-3---5-55-5-5-5---7-77-7-7-7---3-33-3-3-3---|
E-----------------------------------------------------|

e--------------------------------------------------------|
B--------------------------------------------------------|
G--------------------------------------------------------|
D-5-55-5-5-5---5-55-5-5-5---2-22-2-2-2---3-33-3-3-3---5~-|
A-3-33-3-3-3---5-55-5-5-5---2-22-2-2-2---3-33-3-3-3---5~-|
E--------------------------------------------------------|

1:02 - Verse 2
e------------------------------------------\----|
B-----------------------------------------------| \
G------------------------------------------  \--| x2
D-3333-33--x-5555-55--x-5555-55--x-5555-55------|  /
A-3333-33--x-3333-33--x-5555-55--x-5555-55------| /
E-----------------------------------------------|
  ....       ....       ....       ....

e------------------------------------------\----|
B-----------------------------------------------| \
G------------------------------------------  \--| x2
D-333-333--x-555-555--x-555-555--x-555-555------|  /
A-333-333--x-333-333--x-555-555--x-555-555------| /
E-----------------------------------------------|
  ...        ...        ...        ...

e----------------------------------------|
B----------------------------------------|
G----------------------------------------|
D-2-2-2-22---3-3-3-33---2-2-2-22---3-5-7-|
A-2-2-2-22---3-3-3-33---2-2-2-22---3-5-7-|
E----------------------------------------|
      .          .          .

1:27 - Chorus 2
e-----------------------------------------------------|
B-----------------------------------------------------|
G-----------------------------------------------------|
D-5-55-5-5-5---5-55-5-5-5---7-77-7-7-7---3-33-3-3-3---|
A-3-33-3-3-3---5-55-5-5-5---7-77-7-7-7---3-33-3-3-3---|
E-----------------------------------------------------|

e--------------------------------------------------------|
B--------------------------------------------------------|
G--------------------------------------------------------|
D-5-55-5-5-5---5-55-5-5-5---2-22-2-2-2---3-33-3-3-3---5~-|
A-3-33-3-3-3---5-55-5-5-5---2-22-2-2-2---3-33-3-3-3---5~-|
E--------------------------------------------------------|

===============================================

2:03
e-------------------------------\----|
B------------------------------------| \
G-------------------------------  \--| x4
D-333333|---555555|---5(x14)---------|  /
A-333333|---333333|---5(x14)---------| /
E------------------------------------|

e-------------------------------|
B-------------------------------|
G-------------------------------|
D-3(x8)----5(x8)---5(x16)-------|
A-3(x8)----3(x8)---5(x16)-------|
E-------------------------------|

Outro:
e-------------------------|
B-------------------------|
G-------------------------|
D-3---5---5---12-10-9-10~-|
A-3---3---5---------------|
E-------------------------|

e--------------|
B--------------|
G--------------|
D-3---5---5-~~-|
A-3---3---5-~~-|
E--------------|


x - blank
. - Mute

This is my first Tab, so feel free to e-mail me corrections and suggestions at
 event_horizonn@yahoo.com
Suggest correction
Give kudos to tab author, rate the tab!
1 2 3 4 5
comments
print report bad tab
1 comment total.
0 reply
skateordie24f 51 Nov 03, 2009 11:24 AM

This is normally in drop D, but apart from that the chords are right, you just need to play the E string aswell.

guest
You may want to rate the tab now too:
select rating
Wanna post a correction for this tab? Suggest correction