Oops, an error
Loading. Please wait.

Waiting Tab

version 1
version 1

Whole song

Interactive

  • This should be quite well compared to the other versions.
8,742 views 6 this week
5 commentsread comments
1 2 3 4 5
accurate
x 5
add to favorites
launch autoscroll
font size
0
reset
how to read this tab
guitar tuner
Autoscroll
slow
fast
+/-
esc
set tempo
stop
Help us to improve Ultimate-Guitar.com Take our survey!
×
Difficulty
Tuning
novice
D A D G B E
               Waiting
      The Red Jumpsuit Apparatus
Intro [whole thing twice]
E------------------------------------------------------------------|
B------------------------------------------------------------------|
G--12-12-10---10------9--9-9-9-------------------------------------|
D--x---x-x----x-(x3)--x--x-x-x-------------------------------------|
A--10-10-8----8-------7--7-7-7-------------------------------------|
D------------------------------------------------------------------|
Continued
E----------------------------------------|
B----------------------------------------|
G---12------14-------15------17----------|
D----x-(etc)-x-(etc)—x-(etc)x------------|(etc)
A---10------12-------13------15----------|
D----------------------------------------|
Verses 1 and 2[play all through verses until…]
E------------------------------------------------------------|
B------------------------------------------------------------|
G---10-----10----10------------------10-----12---------------|
D----x------x------x-----------------x-------x---------------|
A----8-8-8-8-8-8-8-8-8-8-8-8-8-8-8---8------10---------------|
D------------------------------------------------------------|
             . .       .  .      …....................
Chorus(figure out strumming its not that hard)
E-----------------------------------------------------|
B-----------------------------------------------------|
G----------3--3--3----5-------------------------------|
D--0--2--3-3--3---3---5-----(x2) ---------------------|
A--0--2--3-1--1---1---3-------------------------------|
D--0--2--3--------------------------------------------|
Post verse(figure out strumming)
E-----------------------------8-------------|
B-----------------6-5-3-5-3-----------------|
G-------------------------------------------|
D--0--3--2--0-------------------------------|
A--0--3--2--0-------------------------------|
D--0--3--2--0-------------------------------|
Bridge
Strum the chord you play in the verse
Outro (figure out strumming)
E---------------------------------------------|
B---------------------------------------------|
G---------------------------------------------|
D-0-2-3-5-7-----------------------------------|
A-0-2-3-5-7-----------------------------------|
D-0-2-3-5-7-----------------------------------|
Order
Intro
Verse
Chorus
Post Verse
Verse
Chorus
Bridge
Chorus (on second time around play intro)
Outro
Post Verse
I know its not great but it’s the best I got
Email Gcoop3333@yahoo.com
Suggest correction new What's this?
You can suggest a correction to this tab. Community and Mods will review your correction and vote to approve or reject it.
comments
print report bad tab
5 comments total. Showing first comments.
0 reply
RJA5410 37 wrote on May 24 2007, 09:57 am

looks good man... dont have my guitar in front of me now but it looks like this tab is pretty good (better than the other one at least)

0 reply
m.o.d.--- 188 wrote on May 24 2007, 05:21 pm

e------------------------------------------|
B-----------------6-5-3-5-3----------------|
g--------------------------5---------------|

its an octave lower onb the last note

0 reply
Destamoon 142 wrote on April 13 2008, 04:19 am

pretty good bro, your missing sum stuff, but solid effort

guest
You may want to rate the tab now too:
select rating
Please do not post tabs as comments. Select "correction" instead!