Oops, an error
Loading. Please wait.

Your Guardian Angel Tab

version 1
version 1
309,974 views 30 this week
4 commentsread comments
1 2 3 4 5
x 13
add to favorites
launch autoscroll
font size
0
reset
how to read this tab
guitar tuner
Autoscroll
slow
fast
+/-
esc
set tempo
stop
Help us to improve Ultimate-Guitar.com Take our survey!
×
Author
Difficulty
intermediate
hey this song has some weird tuning but just stay with me..

the strumming pattern is fairly easy just listen to the song

i think this is right but if anyone has a question or correction please email me: wildboyz010@aol.com

intro
D|--------------------------------------------------------------------|
A|--------------------------------------------------------------------|
F|-----------(2)------------------------------------------------------|
E|----5(h7)---0------2(h4h5)------10---12-----------------------------|
G|----5-------0------2------------10---12-----------------------------|
C|----5-------0------2------------10---12-----------------------------|

Verse (this is bascally all he does through the whole song)
D|----------------------------------------------------------------------|
A|----------------------------------------------------------------------|
F|----------------------------------------------------------------------|
E|---5-------0-------2------10------------------------------------------|
G|---5-------0-------2------10------------------------------------------|
C|---5-------0-------2------10------------------------------------------|


-DrewZ
Suggest correction
comments
print report bad tab
4 comments total. Showing first comments.
+1 reply
Yellow_Stacey 10 Mar 09, 2008 11:32 AM

That is NAWT was he does thru the entire song. Geebus.

+1 reply
never2back4down 10 Feb 06, 2009 06:48 PM

hahahah i say geebus to

0 reply
noodle69 10 Apr 02, 2009 05:00 AM

its in drop c tuning

guest
You may want to rate the tab now too:
select rating
Wanna post a correction for this tab? Suggest correction