Oops, an error
Loading. Please wait.

Your Guardian Angel Tab

version 2
version 2
155,923 views 66 this week
17 commentsread comments
1 2 3 4 5
x 27
add to favorites
launch autoscroll
font size
0
reset
how to read this tab
guitar tuner
Autoscroll
slow
fast
+/-
esc
set tempo
stop
Help us to improve Ultimate-Guitar.com Take our survey!
×
Author
Tuning
C G C F A D
Artist/band:The Red Jumpsuit Apparatus
Song :Your Guardian Angel
Album:Don't You Fake It
 

[Intro]
D|----------------------------------------------------------------|
A|----------------------------------------------------------------|
F|-------------------------7-7777----------------------7-5-4------|
C|--5-5555-5h7-7777-7-7777-5-5555-0-0000-0-0000-0-0000-0-0-0------|
G|--5-5555-5---5555-7-7777-5-5555-0-0000-0-0000-0-0000-0-0-0------|
C|--5-5555-5---5555-5-5555-5-5555-0-0000-0-0000-0-0000------------|

D|----------------------------------------------------------------|
A|----------------------------------------------------------------|
F|----------------------------------5-5555-5-5555--7-7777-7-777---|
C|--2-2222-2h4-4444-4h5-5555-4-4444-5-5555-5-5555--7-7777-7-777---|
G|--2-2222-2---2222-2---2222-2-2222-3-3333-3-3333--5-5555-5-555---|
C|--2-2222-2---2222-2---2222-2-2222-------------------------------|

[Verse]
D|----------------------------------------------------------------|
A|----------------------------------------------------------------|
F|--------------------------------------------5-5555-5-5555-------|
C|--5-5555-5-5555-0-0000-0-0000-2-2222-2-2222-5-5555-5-5555-------|(play 4x)
G|--5-5555-5-5555-0-0000-0-0000-2-2222-2-2222-3-3333-3-3333-------|
C|--5-5555-5-5555-0-0000-0-0000-2-2222-2-2222---------------------|


  I will never let you fall, i'll stand up with you forever...
D|-----------------------------------------------------------------|
A|-----------------------------------------------------------------|
F|------------------------------------------------------5----------|
C|--5-----------0--------------2------------------------3----------|(play 2x)
G|--5-----------0--------------2------------------------3----------|
C|--5-----------0--------------2-----------------------------------|

[Instrumental]
(play intro)


  seasons are changing and waves are crashing...
D|----------------------------------------------------------------|
A|----------------------------------------------------------------|
F|--------------------------------------------5-5555-5-5555-------|
C|--5-5555-5-5555-0-0000-0-0000-2-2222-2-2222-5-5555-5-5555-------|(play 2x)
G|--5-5555-5-5555-0-0000-0-0000-2-2222-2-2222-3-3333-3-3333-------|
C|--5-5555-5-5555-0-0000-0-0000-2-2222-2-2222---------------------|


  I will never let you fall, i'll stand up with you forever...
D|----------------------------------------------------------------|
A|----------------------------------------------------------------|
F|------------------------------------------------------5---------|
C|--5-----------0--------------2------------------------3---------|(play 2x)
G|--5-----------0--------------2------------------------3---------|
C|--5-----------0--------------2----------------------------------|


  cause you're my, you're my, my, my true love, my whole heart....
D|----------------------------------------------------------------|
A|----------------------------------------------------------------|
F|---------------------------------------------------7-5-4--------|
C|--5-5555-5-5555-5-5555-5-5555-0-0000-0-0000-0-0000-0-0-0--------|
G|--5-5555-5-5555-5-5555-5-5555-0-0000-0-0000-0-0000-0-0-0--------|
C|--5-5555-5-5555-5-5555-5-5555-0-0000-0-0000-0-0000--------------|

D|----------------------------------------------------------------|
A|----------------------------------------------------------------|
F|------------------------------5-5555-7-7777---------------------|
C|--2-2222-2-2222-2-2222-2-2222-5-5555-7-7777---------------------|
G|--2-2222-2-2222-2-2222-2-2222-3-3333-5-5555---------------------|
C|--2-2222-2-2222-2-2222-2-2222-----------------------------------|


D|----------------------------------------------------------------|
A|----------------------------------------------------------------|
F|---------------------------------------------------7-5-4--------|
C|--5-5555-5-5555-5-5555-5-5555-0-0000-0-0000-0-0000-0-0-0--------|
G|--5-5555-5-5555-5-5555-5-5555-0-0000-0-0000-0-0000-0-0-0--------|
C|--5-5555-5-5555-5-5555-5-5555-0-0000-0-0000-0-0000--------------|

D|----------------------------------------------------------------|
A|----------------------------------------------------------------|
F|-------------------------------55--55-7-7777-7-7777-------------|
C|--2-2222-2-2222-2-2222-2-2222--55--55-7-7777-7-7777-------------|
G|--2-2222-2-2222-2-2222-2-2222--33--33-5-5555-5-5555-------------|
C|--2-2222-2-2222-2-2222-2-2222-----------------------------------|
      distortion comes in here ^

D|----------------------------------------------------------------|
A|----------------------------------------------------------------|
F|----------------------------------------------------------------|
C|--5-5555-5-5555-5-5555-5-5555-0-0000-0-0000-0-0000-0-0000-------|
G|--5-5555-5-5555-5-5555-5-5555-0-0000-0-0000-0-0000-0-0000-------|
C|--5-5555-5-5555-5-5555-5-5555-0-0000-0-0000-0-0000-0-0000-------|

D|----------------------------------------------------------------|
A|----------------------------------------------------------------|
F|------------------------------5-5555-7-7777---------------------|
C|--2-2222-2-2222-2-2222-2-2222-5-5555-7-7777---------------------|
G|--2-2222-2-2222-2-2222-2-2222-3-3333-5-5555---------------------|
C|--2-2222-2-2222-2-2222-2-2222-----------------------------------|

D|----------------------------------------------------------------|
A|----------------------------------------------------------------|
F|----------------11-11111111-11-11111111-------------------------|
C|--5-5555-5-5555-11-11111111-11-11111111-------------------------|
G|--5-5555-5-5555-9--9-9-9-9--9--9-9-9-9--------------------------|
C|--5-5555-5-5555-------------------------------------------------|

D|----------------------------------------------------------------|
A|----------------------------------------------------------------|
F|----------------101010101010111111111111------------------------|
C|--5-5555-5-5555-101010101010111111111111------------------------|
G|--5-5555-5-5555-8-8-8-8-8-8--9-9-9-9-9-9------------------------|
C|--5-5555-5-5555-------------------------------------------------|
play through till the songs ends.



************************************

| h  Hammer-on

************************************
Suggest correction
comments
print report bad tab
17 comments total. Showing first comments.
0 reply
shugo449 530 Aug 10, 2006 10:57 AM

decent

0 reply
oXygEn_WaSteR 308 Aug 10, 2006 05:30 PM

great tab... whoever rated this a 4 is effing retarded...

0 reply
h22turbo 51 Aug 10, 2006 09:58 PM

sweet. correct tuning, correct chords. good job man.

guest
You may want to rate the tab now too:
select rating
Wanna post a correction for this tab? Suggest correction