Oops, an error
Loading. Please wait.

Your Guardian Angel Tab

version 2
version 2
155,356 views 39 this week
17 commentsread comments
1 2 3 4 5
excellent!
x 27
add to favorites
launch autoscroll
font size
0
reset
how to read this tab
guitar tuner
Autoscroll
slow
fast
+/-
esc
set tempo
stop
Help us to improve Ultimate-Guitar.com Take our survey!
×
Author
Tuning
C G C F A D
Artist/band:The Red Jumpsuit Apparatus
Song :Your Guardian Angel
Album:Don't You Fake It

Im pretty sure that this is right .. i stayed up all night doing it so it should be
damn close .. hope u guys like it


(intro)
----------------------------------------------------------------|
----------------------------------------------------------------|
-------------------------7-7777----------------------7-5-4------|
--5-5555-5h7-7777-7-7777-5-5555-0-0000-0-0000-0-0000-0-0-0------|
--5-5555-5---5555-7-7777-5-5555-0-0000-0-0000-0-0000-0-0-0------|
--5-5555-5---5555-5-5555-5-5555-0-0000-0-0000-0-0000------------|

----------------------------------------------------------------|
----------------------------------------------------------------|
----------------------------------5-5555-5-5555--7-7777-7-777---|
--2-2222-2h4-4444-4h5-5555-4-4444-5-5555-5-5555--7-7777-7-777---|
--2-2222-2---2222-2---2222-2-2222-3-3333-3-3333--5-5555-5-555---|
--2-2222-2---2222-2---2222-2-2222-------------------------------|

(verse)
----------------------------------------------------------------|
----------------------------------------------------------------|
--------------------------------------------5-5555-5-5555-------|
--5-5555-5-5555-0-0000-0-0000-2-2222-2-2222-5-5555-5-5555-------|(play 4x)
--5-5555-5-5555-0-0000-0-0000-2-2222-2-2222-3-3333-3-3333-------|
--5-5555-5-5555-0-0000-0-0000-2-2222-2-2222---------------------|


I will never let you fall, i'll stand up with you forever...
-----------------------------------------------------------------|
-----------------------------------------------------------------|
------------------------------------------------------5----------|
--5-----------0--------------2------------------------3----------|(play 2x)
--5-----------0--------------2------------------------3----------|
--5-----------0--------------2-----------------------------------|

(play intro)


seasons are changing and waves are crashing...
----------------------------------------------------------------|
----------------------------------------------------------------|
--------------------------------------------5-5555-5-5555-------|
--5-5555-5-5555-0-0000-0-0000-2-2222-2-2222-5-5555-5-5555-------|(play 2x)
--5-5555-5-5555-0-0000-0-0000-2-2222-2-2222-3-3333-3-3333-------|
--5-5555-5-5555-0-0000-0-0000-2-2222-2-2222---------------------|


I will never let you fall, i'll stand up with you forever...
----------------------------------------------------------------|
----------------------------------------------------------------|
------------------------------------------------------5---------|
--5-----------0--------------2------------------------3---------|(play 2x)
--5-----------0--------------2------------------------3---------|
--5-----------0--------------2----------------------------------|


cause you're my, you're my, my, my true love, my whole heart....
----------------------------------------------------------------|
----------------------------------------------------------------|
---------------------------------------------------7-5-4--------|
--5-5555-5-5555-5-5555-5-5555-0-0000-0-0000-0-0000-0-0-0--------|
--5-5555-5-5555-5-5555-5-5555-0-0000-0-0000-0-0000-0-0-0--------|
--5-5555-5-5555-5-5555-5-5555-0-0000-0-0000-0-0000--------------|

----------------------------------------------------------------|
----------------------------------------------------------------|
------------------------------5-5555-7-7777---------------------|
--2-2222-2-2222-2-2222-2-2222-5-5555-7-7777---------------------|
--2-2222-2-2222-2-2222-2-2222-3-3333-5-5555---------------------|
--2-2222-2-2222-2-2222-2-2222-----------------------------------|


----------------------------------------------------------------|
----------------------------------------------------------------|
---------------------------------------------------7-5-4--------|
--5-5555-5-5555-5-5555-5-5555-0-0000-0-0000-0-0000-0-0-0--------|
--5-5555-5-5555-5-5555-5-5555-0-0000-0-0000-0-0000-0-0-0--------|
--5-5555-5-5555-5-5555-5-5555-0-0000-0-0000-0-0000--------------|

----------------------------------------------------------------|
----------------------------------------------------------------|
-------------------------------55--55-7-7777-7-7777-------------|
--2-2222-2-2222-2-2222-2-2222--55--55-7-7777-7-7777-------------|
--2-2222-2-2222-2-2222-2-2222--33--33-5-5555-5-5555-------------|
--2-2222-2-2222-2-2222-2-2222-----------------------------------|
      distortion comes in here ^

----------------------------------------------------------------|
----------------------------------------------------------------|
----------------------------------------------------------------|
--5-5555-5-5555-5-5555-5-5555-0-0000-0-0000-0-0000-0-0000-------|
--5-5555-5-5555-5-5555-5-5555-0-0000-0-0000-0-0000-0-0000-------|
--5-5555-5-5555-5-5555-5-5555-0-0000-0-0000-0-0000-0-0000-------|

----------------------------------------------------------------|
----------------------------------------------------------------|
------------------------------5-5555-7-7777---------------------|
--2-2222-2-2222-2-2222-2-2222-5-5555-7-7777---------------------|
--2-2222-2-2222-2-2222-2-2222-3-3333-5-5555---------------------|
--2-2222-2-2222-2-2222-2-2222-----------------------------------|

----------------------------------------------------------------|
----------------------------------------------------------------|
----------------11-11111111-11-11111111-------------------------|
--5-5555-5-5555-11-11111111-11-11111111-------------------------|
--5-5555-5-5555-9--9-9-9-9--9--9-9-9-9--------------------------|
--5-5555-5-5555-------------------------------------------------|

----------------------------------------------------------------|
----------------------------------------------------------------|
----------------101010101010111111111111------------------------|
--5-5555-5-5555-101010101010111111111111------------------------|
--5-5555-5-5555-8-8-8-8-8-8--9-9-9-9-9-9------------------------|
--5-5555-5-5555-------------------------------------------------|
play through till the songs ends.

well ladies and gentleman that took me all night to do ..so it better he good at least i
that its good. and this is also my first tab .. so if u have any suggestions or
or just have something to say email me... spitfirerider_89@hotmail.com
Suggest correction
comments
print report bad tab
17 comments total. Showing first comments.
0 reply
shugo449 530 wrote on August 10 2006, 10:57 am

decent

0 reply
oXygEn_WaSteR 308 wrote on August 10 2006, 05:30 pm

great tab... whoever rated this a 4 is effing retarded...

0 reply
h22turbo 51 wrote on August 10 2006, 09:58 pm

sweet. correct tuning, correct chords. good job man.

guest
You may want to rate the tab now too:
select rating
Please do not post tabs as comments. Select "correction" instead!