Oops, an error
Loading. Please wait.
We have an official Your Guardian Angel tab made by UG professional guitarists. Check out the tab »
×
754,678 views 366 this week
104 commentsread comments
1 2 3 4 5
x 193
add to favorites
launch autoscroll
font size
0
reset
how to read this tab
guitar tuner
×
Best way to learn
"Your Guardian Angel"
Autoscroll
slow
fast
+/-
esc
set tempo
stop
Author
Difficulty
Tuning
novice
C G C F A D
The Red Jumpsuit Apparatus
Your Guardian Angel
Album:  Dont You Fake It
Tuning:  Drop C

[INTRO]
D|------------------------------------------------------------|
A|------------------------------------------------------------|
F|------------------------7-7777------------------------7-5-4-|
C|-5-5555-5h7-7777-5-5555-5-5555-0-0000-0h7-7777-4-4444-0-0-0-|
G|-5-5555-5---5555-5-5555-5-5555-0-0000-0---0000-0-0000-0-0-0-|
C|-5-5555-5---5555-5-5555-5-5555-0-0000-0---0000-0-0000-------|

D|---------------------------------------------------------------|
A|---------------------------------------------------------------|
F|-----------------------------------5-5555-5-5555--7-7777-7-777-|
C|-2-2222-2h4-4444-4h5-5555-5p4-4444-5-5555-5-5555--7-7777-7-777-|
G|-2-2222-2---2222-2---2222-2---2222-3-3333-3-3333--5-5555-5-555-|
C|-2-2222-2---2222-2---2222-2---2222-----------------------------|

[VERSE]
D|---------------------------------------------------------|
A|---------------------------------------------------------|
F|-------------------------------------------5-5555-5-5555-|
C|-5-5555-5-5555-0-0000-0-0000-2-2222-2-2222-5-5555-5-5555-|(4x)
G|-5-5555-5-5555-0-0000-0-0000-2-2222-2-2222-3-3333-3-3333-|
C|-5-5555-5-5555-0-0000-0-0000-2-2222-2-2222---------------|

[CHORUS]
D|------------------------------------|
A|------------------------------------|
F|----------------------------------5-|
C|-5----------0----------2----------3-|(2x)
G|-5----------0----------2----------3-|
C|-5----------0----------2------------|

[POST-CHORUS]
D|------------------------------------------------------------|
A|------------------------------------------------------------|
F|------------------------7-7777------------------------7-5-4-|
C|-5-5555-5h7-7777-5-5555-5-5555-0-0000-0h7-7777-4-4444-0-0-0-|
G|-5-5555-5---5555-5-5555-5-5555-0-0000-0---0000-0-0000-0-0-0-|
C|-5-5555-5---5555-5-5555-5-5555-0-0000-0---0000-0-0000-------|

D|---------------------------------------------------------------|
A|---------------------------------------------------------------|
F|-----------------------------------5-5555-5-5555--7-7777-7-777-|
C|-2-2222-2h4-4444-4h5-5555-5p4-4444-5-5555-5-5555--7-7777-7-777-|
G|-2-2222-2---2222-2---2222-2---2222-3-3333-3-3333--5-5555-5-555-|
C|-2-2222-2---2222-2---2222-2---2222-----------------------------|

[VERSE]
D|---------------------------------------------------------|
A|---------------------------------------------------------|
F|-------------------------------------------5-5555-5-5555-|
C|-5-5555-5-5555-0-0000-0-0000-2-2222-2-2222-5-5555-5-5555-|(2x)
G|-5-5555-5-5555-0-0000-0-0000-2-2222-2-2222-3-3333-3-3333-|
C|-5-5555-5-5555-0-0000-0-0000-2-2222-2-2222---------------|

[CHORUS]
D|------------------------------------|
A|------------------------------------|
F|----------------------------------5-|
C|-5----------0----------2----------3-|(2x)
G|-5----------0----------2----------3-|
C|-5----------0----------2------------|

[INTERLUDE]
D|------------------------------------------------------------|
A|------------------------------------------------------------|
F|------------------------7-7777------------------------7-5-4-|
C|-5-5555-5h7-7777-5-5555-5-5555-0-0000-0h7-7777-4-4444-0-0-0-|
G|-5-5555-5---5555-5-5555-5-5555-0-0000-0---0000-0-0000-0-0-0-|
C|-5-5555-5---5555-5-5555-5-5555-0-0000-0---0000-0-0000-------|

D|---------------------------------------------------------------|
A|---------------------------------------------------------------|
F|-----------------------------------5-5555-5-5555--7-7777-7-777-|
C|-2-2222-2h4-4444-4h5-5555-5p4-4444-5-5555-5-5555--7-7777-7-777-|
G|-2-2222-2---2222-2---2222-2---2222-3-3333-3-3333--5-5555-5-555-|
C|-2-2222-2---2222-2---2222-2---2222-----------------------------|

D|------------------------------------------------------------|
A|------------------------------------------------------------|
F|------------------------7-7777------------------------7-5-4-|
C|-5-5555-5h7-7777-5-5555-5-5555-0-0000-0h7-7777-4-4444-0-0-0-|
G|-5-5555-5---5555-5-5555-5-5555-0-0000-0---0000-0-0000-0-0-0-|
C|-5-5555-5---5555-5-5555-5-5555-0-0000-0---0000-0-0000-------|

D|-----------------------------------|
A|-----------------------------------|
F|-----------------------------------|
C|-2-2222-2h4-4444-4h5-5555-5p4-4444-|
G|-2-2222-2---2222-2---2222-2---2222-|
C|-2-2222-2---2222-2---2222-2---2222-|

[DISTORTED OUTRO]
D|-----------------------|
A|-----------------------|
F|-55--55--7-7777-7-7777-|
C|-55--55--7-7777-7-7777-|
G|-33--33--5-5555-5-5555-|
C|-----------------------|

D|---------------------------------------------------------|
A|---------------------------------------------------------|
F|---------------------------------------------------------|
C|-5-5555-5-5555-5-5555-5-5555-0-0000-0-0000-0-0000-0-0000-|
G|-5-5555-5-5555-5-5555-5-5555-0-0000-0-0000-0-0000-0-0000-|
C|-5-5555-5-5555-5-5555-5-5555-0-0000-0-0000-0-0000-0-0000-|

D|---------------------------------------------------------|
A|---------------------------------------------------------|
F|-----------------------------5-5555-5-5555-7-7777-7-7777-|
C|-2-2222-2-2222-2-2222-2-2222-5-5555-5-5555-7-7777-7-7777-|
G|-2-2222-2-2222-2-2222-2-2222-3-3333-3-3333-5-5555-5-5555-|
C|-2-2222-2-2222-2-2222-2-2222-----------------------------|

D|-----------------------------------------|
A|-----------------------------------------|
F|----------------/11-11111111-11-11111111-|
C|-5-5555-5-5555--/x--x-x-x-x--x--x-x-x-x--|
G|-5-5555-5-5555--/9--9-9-9-9--9--9-9-9-9--|
C|-5-5555-5-5555---------------------------|

D|--------------------------------------------|
A|--------------------------------------------|
F|----------------121212121212-/-141414141414-|
C|-5-5555-5-5555--x-x-x-x-x-x----x-x-x-x-x-x--|
G|-5-5555-5-5555--101010101010-/-121212121212-|
C|-5-5555-5-5555------------------------------|

************************************

| h  Hammer-on
| p  Pull-off
| /  Slide up
| x  Dead note

************************************
Suggest correction
comments
print report bad tab
104 comments total. Showing first comments.
+7 reply
Pieper1 162 Sep 21, 2006 05:15 PM

excellent work my friend

0 reply
Capt. Maxzmus 10 Nov 25, 2006 05:40 AM

good job i thought it was in a different tuning though

+10 reply
Xx__benji__xX 218 Dec 01, 2006 07:31 AM

great tab dude but the last riff I think goes like this...

|-----------------------------------------|
|-----------------------------------------|
|----------------/11-11111111-11-11111111-|
|-5-5555-5-5555--/x--x-x-x-x--x--x-x-x-x--|
|-5-5555-5-5555--/9--9-9-9-9--9--9-9-9-9--|
|-5-5555-5-5555---------------------------|

|--------------------------------------------|
|--------------------------------------------|
|----------------121212121212-/-141414141414-|
|-2-2222-2-2222--x-x-x-x-x-x----x-x-x-x-x-x--|
|-2-2222-2-2222--101010101010-/-121212121212-|
|-2-2222-2-2222------------------------------|

The only reason I think this is because its impossible to sing it intune with 5. But you can with 2.

guest
You may want to rate the tab now too:
select rating
Wanna post a correction for this tab? Suggest correction