Oops, an error
Loading. Please wait.

Your Guardian Angel Tab

version 3
version 3
732,715 views 465 this week
104 commentsread comments
1 2 3 4 5
excellent!
x 184
add to favorites
launch autoscroll
font size
0
reset
how to read this tab
guitar tuner
Tab Pro tools
  • play this tab
  • loop segment
  • change instrument
  • show fretboard
  • metronome
×
Best way to learn
"Your Guardian Angel"
Autoscroll
slow
fast
+/-
esc
set tempo
stop
Contributor
Difficulty
Tuning
novice
C G C F A D
well.. the tab before me was awesome.. but i saw just a few slight mistakes soo i 
to tab this song perfectly...

The Red Jumpsuit Apparatus
Your Guardian Angel
Album:  Dont You Fake It
Tuning:  Drop C

KEY:
h - hammer-on
p - pull-off
/ - slide

INTRO
|------------------------------------------------------------|
|------------------------------------------------------------|
|------------------------7-7777------------------------7-5-4-|
|-5-5555-5h7-7777-5-5555-5-5555-0-0000-0h7-7777-4-4444-0-0-0-|
|-5-5555-5---5555-5-5555-5-5555-0-0000-0---0000-0-0000-0-0-0-|
|-5-5555-5---5555-5-5555-5-5555-0-0000-0---0000-0-0000-------|

|---------------------------------------------------------------|
|---------------------------------------------------------------|
|-----------------------------------5-5555-5-5555--7-7777-7-777-|
|-2-2222-2h4-4444-4h5-5555-5p4-4444-5-5555-5-5555--7-7777-7-777-|
|-2-2222-2---2222-2---2222-2---2222-3-3333-3-3333--5-5555-5-555-|
|-2-2222-2---2222-2---2222-2---2222-----------------------------|

VERSE
|---------------------------------------------------------|
|---------------------------------------------------------|
|-------------------------------------------5-5555-5-5555-|
|-5-5555-5-5555-0-0000-0-0000-2-2222-2-2222-5-5555-5-5555-|(4x)
|-5-5555-5-5555-0-0000-0-0000-2-2222-2-2222-3-3333-3-3333-|
|-5-5555-5-5555-0-0000-0-0000-2-2222-2-2222---------------|

CHORUS
|------------------------------------|
|------------------------------------|
|----------------------------------5-|
|-5----------0----------2----------3-|(2x)
|-5----------0----------2----------3-|
|-5----------0----------2------------|

POST-CHORUS
|------------------------------------------------------------|
|------------------------------------------------------------|
|------------------------7-7777------------------------7-5-4-|
|-5-5555-5h7-7777-5-5555-5-5555-0-0000-0h7-7777-4-4444-0-0-0-|
|-5-5555-5---5555-5-5555-5-5555-0-0000-0---0000-0-0000-0-0-0-|
|-5-5555-5---5555-5-5555-5-5555-0-0000-0---0000-0-0000-------|

|---------------------------------------------------------------|
|---------------------------------------------------------------|
|-----------------------------------5-5555-5-5555--7-7777-7-777-|
|-2-2222-2h4-4444-4h5-5555-5p4-4444-5-5555-5-5555--7-7777-7-777-|
|-2-2222-2---2222-2---2222-2---2222-3-3333-3-3333--5-5555-5-555-|
|-2-2222-2---2222-2---2222-2---2222-----------------------------|

VERSE
|---------------------------------------------------------|
|---------------------------------------------------------|
|-------------------------------------------5-5555-5-5555-|
|-5-5555-5-5555-0-0000-0-0000-2-2222-2-2222-5-5555-5-5555-|(2x)
|-5-5555-5-5555-0-0000-0-0000-2-2222-2-2222-3-3333-3-3333-|
|-5-5555-5-5555-0-0000-0-0000-2-2222-2-2222---------------|

CHORUS
|------------------------------------|
|------------------------------------|
|----------------------------------5-|
|-5----------0----------2----------3-|(2x)
|-5----------0----------2----------3-|
|-5----------0----------2------------|

INTERLUDE
|------------------------------------------------------------|
|------------------------------------------------------------|
|------------------------7-7777------------------------7-5-4-|
|-5-5555-5h7-7777-5-5555-5-5555-0-0000-0h7-7777-4-4444-0-0-0-|
|-5-5555-5---5555-5-5555-5-5555-0-0000-0---0000-0-0000-0-0-0-|
|-5-5555-5---5555-5-5555-5-5555-0-0000-0---0000-0-0000-------|

|---------------------------------------------------------------|
|---------------------------------------------------------------|
|-----------------------------------5-5555-5-5555--7-7777-7-777-|
|-2-2222-2h4-4444-4h5-5555-5p4-4444-5-5555-5-5555--7-7777-7-777-|
|-2-2222-2---2222-2---2222-2---2222-3-3333-3-3333--5-5555-5-555-|
|-2-2222-2---2222-2---2222-2---2222-----------------------------|

|------------------------------------------------------------|
|------------------------------------------------------------|
|------------------------7-7777------------------------7-5-4-|
|-5-5555-5h7-7777-5-5555-5-5555-0-0000-0h7-7777-4-4444-0-0-0-|
|-5-5555-5---5555-5-5555-5-5555-0-0000-0---0000-0-0000-0-0-0-|
|-5-5555-5---5555-5-5555-5-5555-0-0000-0---0000-0-0000-------|

|-----------------------------------|
|-----------------------------------|
|-----------------------------------|
|-2-2222-2h4-4444-4h5-5555-5p4-4444-|
|-2-2222-2---2222-2---2222-2---2222-|
|-2-2222-2---2222-2---2222-2---2222-|

DISTORTED OUTRO
|-----------------------|
|-----------------------|
|-55--55--7-7777-7-7777-|
|-55--55--7-7777-7-7777-|
|-33--33--5-5555-5-5555-|
|-----------------------|

|---------------------------------------------------------|
|---------------------------------------------------------|
|---------------------------------------------------------|
|-5-5555-5-5555-5-5555-5-5555-0-0000-0-0000-0-0000-0-0000-|
|-5-5555-5-5555-5-5555-5-5555-0-0000-0-0000-0-0000-0-0000-|
|-5-5555-5-5555-5-5555-5-5555-0-0000-0-0000-0-0000-0-0000-|

|---------------------------------------------------------|
|---------------------------------------------------------|
|-----------------------------5-5555-5-5555-7-7777-7-7777-|
|-2-2222-2-2222-2-2222-2-2222-5-5555-5-5555-7-7777-7-7777-|
|-2-2222-2-2222-2-2222-2-2222-3-3333-3-3333-5-5555-5-5555-|
|-2-2222-2-2222-2-2222-2-2222-----------------------------|

|-----------------------------------------|
|-----------------------------------------|
|----------------/11-11111111-11-11111111-|
|-5-5555-5-5555--/x--x-x-x-x--x--x-x-x-x--|
|-5-5555-5-5555--/9--9-9-9-9--9--9-9-9-9--|
|-5-5555-5-5555---------------------------|

|--------------------------------------------|
|--------------------------------------------|
|----------------121212121212-/-141414141414-|
|-5-5555-5-5555--x-x-x-x-x-x----x-x-x-x-x-x--|
|-5-5555-5-5555--101010101010-/-121212121212-|
|-5-5555-5-5555------------------------------|

There you go.. its deffinately perfect.. if you have any questions about it.. IM me at 
its a very easy song to play.. so enjoy
comments
print report bad tab
104 comments total. Showing first comments.
+6 reply
Pieper1 wrote on September 21 2006, 09:15 pm

excellent work my friend

0 reply
Capt. Maxzmus wrote on November 25 2006, 10:40 am

good job i thought it was in a different tuning though

+9 reply
Xx__benji__xX wrote on December 1 2006, 12:31 pm

great tab dude but the last riff I think goes like this...

|-----------------------------------------|
|-----------------------------------------|
|----------------/11-11111111-11-11111111-|
|-5-5555-5-5555--/x--x-x-x-x--x--x-x-x-x--|
|-5-5555-5-5555--/9--9-9-9-9--9--9-9-9-9--|
|-5-5555-5-5555---------------------------|

|--------------------------------------------|
|--------------------------------------------|
|----------------121212121212-/-141414141414-|
|-2-2222-2-2222--x-x-x-x-x-x----x-x-x-x-x-x--|
|-2-2222-2-2222--101010101010-/-121212121212-|
|-2-2222-2-2222------------------------------|

The only reason I think this is because its impossible to sing it intune with 5. But you can with 2.

I want to post or [tab]
guest
You may want to rate the tab now too:
select rating
Please do not post tabs as comments. Select "correction" instead!