Oops, an error
Loading. Please wait.

Your Guardian Angel Tab

version 5
version 5
58,550 views 45 this week
15 commentsread comments
1 2 3 4 5
x 9
add to favorites
launch autoscroll
font size
0
reset
how to read this tab
guitar tuner
Autoscroll
slow
fast
+/-
esc
set tempo
stop
Help us to improve Ultimate-Guitar.com Take our survey!
×
Author
Tabbers playing skills
advanced +
by f_sario@yahoo.com
SHC lucena phils.
09283150081

~~~ ",)hi to all SHC BSN students etc..


tab1:drop d
tab2:drop c

GtrI -acoustic gtr-( e b g d A D )-Ronnie Winter
GtrII-elec.gtr    -( e b g d A D )-Elias Reidy
GtrIII-elec.gtr   -( e b g d A D )-Duke Kitchens


Intro-
riff1
GtrI
|----------------------------------------------------------|
|----------------------------------------------------------|
|------------------5-55------------------------------------|
|-3-3333h5-55-55--55-55------2-22-2-2-22-2333---x---x---x--|
|-3-3333-3-33-33--33-33------3-33-3-3-33-3333---3---1---0--|
|-3-3333-3-33-33--33-33------2-22-2-2-22-2222--(0)-(0)-(0)-|

|----------------------------------------------------------|
|----------------------------------------------------------|
|----------------------------------------------------------|
|-0-00-0h2-22-2/3-3-3/2-2-2--3-33333-3333-5-55555-555------|
|-0-00-0-0-00-0-0-0-0-0-0-0--1-11111-1111-3-33333-333------|
|-0-00-0-0-00-0-0-0-0-0-0-0--------------------------------|

Verse-
riff2
GtrI
|----------------------------------------------------------|
|----------------------------------------------------------|
|------------------------------ ---------------------------|
|-3-33333-3333-2-22222-2222--0--00000-0000--3-33333-3-3333-|
|-3-33333-3333-3-33333-3333--0--00000-0000--1-11111-1-1111-|
|-3-33333-3333-2-22222-2222--0--00000-0000-----------------|


Chorus-
GtrI
1.
|-----------|----------------|-------------|--------------|
|-----------|----------------|-------------|--------------|
|-----------|----------------|-------------|--------------|
|-3~--------|--2~------------|-0~----------|-3~-----------|2x
|-3~--------|--3~------------|-0~----------|-1~-----------|
|-3~--------|--2~------------|-0~----------|--------------|
   
2.
GtrII
|----------------------------------------------------------|
|----------------------------------------------------------|
|------------------5-55------------------------------------|
|-3-3333h5-55-55--55-55-----2-22-2-2-22-2333---x---x---x---|
|-3-3333-3-33-33--33-33-----3-33-3-3-33-3333---3---2---1---|
|-3-3333-3-33-33--33-33-----2-22-2-2-22-2222--(0)-(0)-(0)--|

|----------------------------------------------------------|
|----------------------------------------------------------|
|----------------------------------------------------------|
|-0-00-0h2-22-2/3-3-3/2-2-2--3-333-3-3-3333-5-555555-------|
|-0-00-0-0-00-0-0-0-0-0-0-0--1-111-1-1-1111-3-333333-------|
|-0-00-0-0-00-0-0-0-0-0-0-0--------------------------------|

Verse2

GtrI-Do riff2

GtrII
|---------------|----------------|--------------|------------------|  |-----|
|--------8-10---|---------8-10---|---------8----|---------11-10----|  |-13~-|
|-----10-----10-|------10-----10-|------10--10--|------10-------10-|2x|-----|
|---10----------|---10-----------|---10-------10|---10-------------|  |-----|
|-8-------------|-7--------------|-8------------|-7----------------|  |-----|
|---------------|----------------|--------------|------------------|  |-----|

Do chorus-

GtrI do riffI

at pt2

GtrII(clean)- enters
|---------------|----------------|--------------|------------------|
|-13------------|-11-------------|--10----------|------------------|
|----10---------|----10----------|-----10-------|-12-10------------|
|-------10------|-------10-------|--------10----|-------10---------|3x
|---------------|----------------|--------------|------------------|
|---------------|----------------|--------------|------------------|

last part of chorus
'Cause I'm here for you...
|----------------------------------------------------------|
|----------------------------------------------------------|
|------------------5-55-55---------------------------------|
|-3-3333h5-55-55--55-55-55---2-22-2-2-22-2333---x---x---x--|
|-3-3333-3-33-33--33-33-33---3-33-3-3-33-3333---3---2---1--|
|-3-3333-3-33-33--33-33-33---2-22-2-2-22-2222--(0)-(0)-(0)-|

|------------------------------------|
|------------------------------------|
|------------------------------------|
|-0-00-0h2-22-2/3-3-3/2-2-2----------|
|-0-00-0-0-00-0-0-0-0-0-0-0----------|
|-0-00-0-0-00-0-0-0-0-0-0-0----------|


prebridge-
Gtr I
GtrII(dist)  
|---------------------------------|
|---------------------------------|
|---------------------------------|
|-33-33--5-555555555555-----------|
|-11-11--3-333333333333-----------|
|---------------------------------|

III(dist)  
|---------------------------------|
|---------------------------------|
|-10-10-10-10-1212121212121212----|
|-x--x--x--x--x-x-x-x-x-x-x-x-----|
|-8--8--8--8--1010101010101010----|
|---------------------------------|



Bridge-till fade 

GtrI

|----------------------------------------------------------|
|----------------------------------------------------------|
|------------------------------ ---------------------------|
|-3-3-3-3-3-3--3-3-3-3---2-22222-2222--0--0-0-0-0--0-0-0-0-|
|-3-3-3-3-3-3--3-3-3-3---2-22222-2222--0--0-0-0-0--0-0-0-0-|
|-3-3-3-3-3-3--3-3-3-3---2-22222-2222--0--0-0-0-0--0-0-0-0-|


Gtr II(dist)  
|----------------------------------------------------------|
|----------------------------------------------------------|
|------------------------------ ---------------------------|
|-3-3-3-3-3-3--3-3-3-3---2-22222-2222--7--7-7-7-7--7-7-7-7-|
|-3-3-3-3-3-3--3-3-3-3---2-22222-2222--5--5-5-5-5--5-5-5-5-|
|-3-3-3-3-3-3--3-3-3-3---2-22222-2222----------------------|

Gtr III(dist)  
|-----------------------------------------------------------|
|-----------------------------------------------------------|
|-10-1010101010-10101010-9-99999-9999--10-1010101010-101010-|
|-x--x-x-x-x-x--x-x-x-x--x-xxxxx-xxxx--x--x-x-x-x-x--x-x-x--|
|-8--8-8-8-8-8--8-8-8-8--7-77777-7777--8--8-8-8-8-8--8-8-8--|
|-----------------------------------------------------------|


then

Gtr I&
GtrII(dist)  
|---------------------------------|
|---------------------------------|
|---------------------------------|
|-3333333-5555555-----------------|
|-1111111-3333333-----------------|
|---------------------------------|

III(dist)  
|---------------------------------|
|---------------------------------|
|-10101010101010-12121212121212---|
|-x-x-x-x-x-x-x--x-x-x-x-x-x-x----|
|-8-8-8-8-8-8-8--10101010101010---|
|---------------------------------|



--------------------------------------------------------------------------------
                                 TAB # 2
--------------------------------------------------------------------------------

GtrI -acoustic gtr-( drop C )-Ronnie Winter
GtrII-elec.gtr    -( drop C )-Elias Reidy
GtrIII-elec.gtr   -( drop C )-Duke Kitchens


Intro-
riff1
GtrI
|----------------------------------------------------------|
|----------------------------------------------------------|
|------------------7-77------------------------------------|
|-5-5555h7-77-77--77-77------0-00-0-0-00-0555---x---x---x--|
|-5-5555-5-55-55--55-55------0-00-0-0-00-0000---5---4---2--|
|-5-5555-5-55-55--55-55------0-00-0-0-00-0000---0---0---0--|


|----------------------------------------------------------|
|----------------------------------------------------------|
|----------------------------------------------------------|
|-2-22-2h4-44-4/5-5-5/4-4-4--5-55555-5555-7-77777-777------|
|-2-22-2-2-22-2-2-2-2-2-2-2--3-33333-3333-5-55555-555------|
|-2-22-2-2-22-2-2-2-2-2-2-2--------------------------------|

Verse-
riff2
GtrI
|----------------------------------------------------------|
|----------------------------------------------------------|
|------------------------------ ---------------------------|
|-5-55555-5555-0-00000-0000--2--22222-2222--5-55555-5-5555-|
|-5-55555-5555-0-00000-0000--2--22222-2222--3-33333-3-3333-|
|-5-55555-5555-0-00000-0000--2--22222-2222-----------------|


Chorus-
GtrI
1.
|-----------|----------------|-------------|--------------|
|-----------|----------------|-------------|--------------|
|-----------|----------------|-------------|--------------|
|-5~--------|--0~------------|-2~----------|-5~-----------|2x
|-5~--------|--0~------------|-2~----------|-3~-----------|
|-5~--------|--0~------------|-2~----------|--------------|
   
2.
|----------------------------------------------------------|
|----------------------------------------------------------|
|------------------7-77------------------------------------|
|-5-5555h7-77-77--77-77------0-00-0-0-00-0555---x---x---x--|
|-5-5555-5-55-55--55-55------0-00-0-0-00-0000---5---4---2--|
|-5-5555-5-55-55--55-55------0-00-0-0-00-0000---0---0---0--|


|----------------------------------------------------------|
|----------------------------------------------------------|
|----------------------------------------------------------|
|-2-22-2h4-44-4/5-5-5/4-4-4--5-55555-5555-7-77777----------|
|-2-22-2-2-22-2-2-2-2-2-2-2--3-33333-3333-5-55555----------|
|-2-22-2-2-22-2-2-2-2-2-2-2--------------------------------|

Verse2

GtrI-Do riff2

GtrII
|---------------|----------------|--------------|------------------|  |-----|
|--------10-12--|--------10-12---|--------10----|---------13-12----|  |-15~-|
|-----12------12|------12-----12-|------12--12--|------12-------12-|2x|-----|
|---12----------|---12-----------|---12-------12|---12-------------|  |-----|
|-10------------|-9--------------|-10-----------|-9----------------|  |-----|
|---------------|----------------|--------------|------------------|  |-----|

Do chorus-

GtrI do riffI

at pt2

GtrII(clean)- enters
|---------------|----------------|--------------|------------------|
|-15------------|-13-------------|--12----------|------------------|
|----12---------|----12----------|-----12-------|-14-12------------|
|-------12------|-------12-------|--------12----|-------12---------|3x
|---------------|----------------|--------------|------------------|
|---------------|----------------|--------------|------------------|

last part of chorus
'Cause I'm here for you...

|----------------------------------------------------------|
|----------------------------------------------------------|
|------------------7-77------------------------------------|
|-5-5555h7-77-77--77-77------0-00-0-0-00-0555---x---x---x--|
|-5-5555-5-55-55--55-55------0-00-0-0-00-0000---5---4---2--|
|-5-5555-5-55-55--55-55------0-00-0-0-00-0000---0---0---0--|

|----------------------------------------------------------|
|----------------------------------------------------------|
|----------------------------------------------------------|
|-2-22-2h4-44-4/5-5-5/4-4-4--------------------------------|
|-2-22-2-2-22-2-2-2-2-2-2-2--------------------------------|
|-2-22-2-2-22-2-2-2-2-2-2-2--------------------------------|


prebridge-
Gtr I
GtrII(dist)  
|---------------------------------|
|---------------------------------|
|---------------------------------|
|-55-55--7-777777777777-----------|
|-33-33--5-555555555555-----------|
|---------------------------------|

III(dist)  
|---------------------------------|
|---------------------------------|
|-55-55--7-777777777777-----------|
|-xx-xx--x-xxxxxxxxxxxx-----------|
|-33-33--5-555555555555-----------|
|---------------------------------|



Bridge-till fade 

GtrI

|----------------------------------------------------------|
|----------------------------------------------------------|
|------------------------------ ---------------------------|
|-5-5-5-5-5-5--5-5-5-5---0-00000-0000--2--2-2-2-2--2-2-2-2-|
|-5-5-5-5-5-5--5-5-5-5---0-00000-0000--2--2-2-2-2--2-2-2-2-|
|-5-5-5-5-5-5--5-5-5-5---0-00000-0000--2--2-2-2-2--2-2-2-2-|


Gtr II(dist)  
|-----------------------------------------------------------|
|-----------------------------------------------------------|
|-----------------------11-11111-11111----------------------|
|-5-5-5-5-5-5--5-5-5-5--x--xxxxx-xxxxx--2--2-2-2-2--2-2-2-2-|
|-5-5-5-5-5-5--5-5-5-5--9--99999-99999--2--2-2-2-2--2-2-2-2-|
|-5-5-5-5-5-5--5-5-5-5------------------2--2-2-2-2--2-2-2-2-|

Gtr III(dist)  
|------------------------------------------------------------|
|------------------------------------------------------------|
|-12-1212121212-12121212-11-11111-11111-12-1212121212-121212-|
|-x--x-x-x-x-x--x-x-x-x--x--xxxxx-xxxxx--x--x-x-x-x-x--x-x-x-|
|-10-1010101010-10101010-9--99999-99999-10-1010101010-101010-|
|------------------------------------------------------------|


then

Gtr I
GtrII(dist)  
|---------------------------------|
|---------------------------------|
|---------------------------------|
|-55555555--77777777--------------|
|-33333333--55555555--------------|
|---------------------------------|

III(dist)  
|---------------------------------|
|---------------------------------|
|-121212121212-141414141414-------|
|-x-x-x-x-x-x--x-x-x-x-x-x--------|
|-101010101010-121212121212-------|
|---------------------------------|



Suggest correction
comments
print report bad tab
15 comments total. Showing first comments.
+2 reply
doobidoo 5,838 Nov 30, 2007 02:18 AM

WHAT THE... THIS IS MY TAB AND ITS LISTED IN UNREGISTERED

+2 reply
saroit 10 Dec 06, 2007 12:31 AM

thanks man!!nice you figured out that there's 3 guitars.

+2 reply
francis hilera 10 Dec 07, 2007 04:45 AM

good job man!",)

guest
You may want to rate the tab now too:
select rating
Wanna post a correction for this tab? Suggest correction