Oops, an error
Loading. Please wait.

Your Guardian Angel Tab

version 6
version 6
41,772 views 6 this week
6 commentsread comments
1 2 3 4 5
accurate
x 12
add to favorites
launch autoscroll
font size
0
reset
how to read this tab
guitar tuner
Autoscroll
slow
fast
+/-
esc
set tempo
stop
Help us to improve Ultimate-Guitar.com Take our survey!
×
Author
Song       : Your Guardian Angel
Band       : The Red Jumpsuit Apparatus
Tabbed By  : Ruth Mae Quisayang
Tuning     : Drop C Tuning

Intro :

Guitar 1
D------------------|-------------------|-------------------|------------------|
A------------------|-------------------|-------------------|------------------|
F------------------|---------7--77--7--|-------------------|---------7--5--4--|
C-5--55557--77--7--|--5--55555--55--5--|--0--00005h777--7--|--0--00000--0--0--|
G-5--55555--55--5--|--5--55555--55--5--|--0--00000-000--0--|--0--00000--0--0--|
C-5—-55555--55--5--|--5--55555--55--5--|--0--00000-000--0--|--0--0000---------|

D------------------|--------------------|------------------|------------------|
A------------------|--------------------|------------------|------------------|
F------------------|--------------------|--5--55555--5555--|--7--77777--7777--|
C-2--22224--44--4--|--5--5555-4--44--4--|--5--55555--5555--|--7--77777--7777--|
G-2--22222--22--2--|--2--2222-2--22--2--|--3--33333--3333--|--5--55555--5555--|
C-2--22222--22--2--|--2--2222-2--22--2--|------------------|------------------|

Verse :

Guitar 1
D-----------------|------------------|------------------|-----------------|
A-----------------|------------------|------------------|-----------------|
F-----------------|------------------|------------------|--5--55555--5555-|(4x)
C-5--55555--5555--|--0--00000--0000--|--2--22222--2222--|--5--55555--5555-|
G-5--55555--5555--|--0--00000--0000--|--2--22222--2222--|--3--33333--3333-|
C-5--55555--5555--|--0--00000--0000--|--2--22222--2222--|-----------------|

Chorus :

Guitar 1
D----------------------------------------|
A----------------------------------------|
F-------------------------------------5~-|(2x)
C-5~----------0~----------2~----------5~-|
G-5~----------0~----------2~----------3~-|
C-5~----------0~----------2~-------------|


*Repeat Intro*


Verse 2 : (Guitar 1&2)

Guitar 1
D-------------------|--------------------|--------------------|-------------------|
A-------------------|--------------------|--------------------|-------------------|
F-------------------|--------------------|--------------------|--5---55555---5555-|(2x}
C-5---55555---5555--|--0---00000---0000--|--2---22222---2222--|--5---55555---5555-|
G-5---55555---5555--|--0---00000---0000--|--2---22222---2222--|--3---33333---3333-|
C-5---55555---5555--|--0---00000---0000--|--2---22222---2222--|-------------------|
Guitar 2
D-------------------|--------------------|--------------------|--------------------|
A-------------------|--------------------|--------------------|-----------13-12----|
F-12----12-14-12----|--12----12-14-12----|-12----12-14-12-----|--12----12-------12-|(2x)
C----12----------12-|-----12----------12-|----12----------12--|-----12-------------|
G-------------------|--------------------|--------------------|--------------------|
C-------------------|--------------------|--------------------|--------------------|


*Repeat Intro*


Then..(Guitar 1&2)

Guitar 1
D-------------------|-------------------|-------------------|-------------------|
A-------------------|-------------------|-------------------|-------------------|
F-------------------|-------------------|-------------------|-------------------|
C-5--55555--55--5---|-5--55555--55--5---|-0--00000--00--0---|-0--00000--00--0---|
G-5--55555--55--5---|-5--55555--55--5---|-0--00000--00--0---|-0--00000--00--0---|
C-5--55555--55--5---|-5--55555--55--5---|-0--00000--00--0---|-0--00000--00--0---|
Guitar 2
D-------------------|-------------------|-------------------|-------------------|
A-15-------13-------|-12----------------|-15-------13-------|-12----------------|
F----12-------12----|----12----14-12----|----12-------12----|----12----14-12----|
C-------12-------12-|-------12-------12-|-------12-------12-|-------12-------12-|
G-------------------|-------------------|-------------------|-------------------|
C-------------------|-------------------|-------------------|-------------------|

Continuation..(Guitar 1&2)
Guitar 1
D-------------------|-------------------|---------------------|----------------|
A-------------------|-------------------|---------------------|----------------|
F-------------------|-------------------|-55--------55--------|-7--77777—77777-|
C-2--22222--22--2---|-2--22222--22--2---|-55(pause)-55(pause)-|-7--77777--7777-|
G-2--22222--22--2---|-2--22222--22--2---|-33--------33--------|-5--55555--5555-|
C-2--22222--22--2---|-2--22222--22--2---|---------------------|----------------|
Guitar 2
D-------------------|-------------------|
A-15-------13-------|-12----------------|
F----12-------12----|----12----14-12----|
C-------12-------12-|-------12-------12-|
G-------------------|-------------------|
C-------------------|-------------------|

Continuation..(Guitar 1 Only)
Guitar 1
D-----------------|-----------------|--------------|----------------|
A-----------------|-----------------|--------------|----------------|
F-----------------|-----------------|--------------|----------------|
C-5--55555--55--5-|-5--55555--55--5-|-0--0000000-0-|-0--00000--0--0-|
G-5—-55555--55--5-|-5--55555--55--5-|-0--0000000-0-|-0--00000--0--0-|
C-5—-55555--55--5-|-5--55555--55--5-|-0--0000000-0-|-0--00000--0--0-|

Guitar 1
D-----------------|-----------------|---------------|---------------|----------------|
A-----------------|-----------------|---------------|---------------|----------------|
F-----------------|-----------------|-5-55555--5555-|-7--7777--7777-|----------------|
C-2--22222--22--2-|-2--22222--22--2-|-5-55555--5555-|-7--7777--7777-|-5--55555--5555-|
G-2--22222--22--2-|-2--22222--22--2-|-3-33333--3333-|-5--5555--5555-|-5--55555--5555-|
C-2--22222--22--2-|-2--22222--22--2-|---------------|---------------|-5--55555--5555-|

Continuation..(Guitar 1&2)
Guitar 1
D----------------|----------------|----------------|
A----------------|----------------|----------------|
F----------------|----------------|-5--55555--5555-|
C-0--00000--0000-|-2--22222--2222-|-5--55555--5555-|
G-0--00000--0000-|-2--22222--2222-|-3--33333--3333-|
C-0--00000--0000-|-2--22222--2222-|----------------|
Guitar 2
D------------------------|--------------|--------------------------|
A------------------------|--------------|--------------------------|
F-11-1111111111-11111111-|-9-99999-9999-|-12-1212121212/1414141414-|
C-x--x-x-x-x-x---x-x-x-x-|-x-xxxxx-xxxx-|-x--x-x-x-x-x---x-x-x-x-x-|
G-9--9-9-9-9-9---9-9-9-9-|-7-77777-7777-|-10-1010101010/1212121212-|
C------------------------|--------------|--------------------------|


Continuation..(Guitar 1&2)
Guitar 1
D----------------|----------------|---------------|----------------|
A----------------|----------------|---------------|----------------|
F----------------|----------------|---------------|-5--55555--5555-|
C-5--55555--5555-|-0--00000--0000-|-2--22222-2222-|-5--55555--5555-|
G-5--55555--5555-|-0--00000--0000-|-2--22222-2222-|-3--33333--3333-|
C-5--55555--5555-|-0--00000--0000-|-2--22222-2222-|----------------|
Guitar 2
D------------------------|------------------------|--------------|--------------------------|
A------------------------|------------------------|--------------|--------------------------|
F-12-1212121212-12121212-|-11-1111111111-11111111-|-9-99999-9999-|-12-1212121212/1414141414-|
C-x--x-x-x-x-x--x-x-x-x--|-x--x-x-x-x-x--x-x-x-x--|-x-xxxxx-xxxx-|-x--x-x-x-x-x--x-x-x-x-x--|
G-10-1010101010-10101010-|-9--9-9-9-9-9--9-9-9-9--|-7-77777-7777-|-10-1010101010/1212121212-|
C------------------------|------------------------|--------------|--------------------------|


Outro : (Guitar 1&2)

Guitar 1
D----------------|----------------|---------------|----------------|
A----------------|----------------|---------------|----------------|
F----------------|----------------|---------------|-5--55555--5555-|(4x)
C-5--55555--5555-|-0--00000--0000-|-2--22222-2222-|-5--55555--5555-|
G-5--55555--5555-|-0--00000--0000-|-2--22222-2222-|-3--33333--3333-|
C-5--55555--5555-|-0--00000--0000-|-2--22222-2222-|----------------|
Guitar 2
D------------------------|------------------------|--------------|--------------------------|
A------------------------|------------------------|--------------|--------------------------|
F-12-1212121212-12121212-|-11-1111111111-11111111-|-9-99999-9999-|-12-1212121212/1414141414-|(4x)
C-x--x-x-x-x-x--x-x-x-x--|-x--x-x-x-x-x--x-x-x-x--|-x-xxxxx-xxxx-|-x--x-x-x-x-x--x-x-x-x-x--|
G-10-1010101010-10101010-|-9--9-9-9-9-9--9-9-9-9--|-7-77777-7777-|-10-1010101010/1212121212-|
C------------------------|------------------------|--------------|--------------------------|

Then..
Guitar 1
D----|
A----|
F----|
C-5~-|
G-5~-|
C-5~-|
Guitar 2
D-----|
A-12~-|
F-x---|
C-10~-|
G-----|
C-----|

-End-

Guitar Legend :

h = Hammer
x = Muted Note
/ = Slide Up
~ = Let Ring/Vibrato
Suggest correction
What's this?
You can suggest a correction to this tab. Community and Mods will review your correction and vote to approve or reject it.
comments
print report bad tab
6 comments total. Showing first comments.
0 reply
brandon(KETE) 827 wrote on December 1 2007, 10:44 pm

Nice!! almost perfect!! 5 stars

0 reply
supersario 97 wrote on December 6 2007, 12:25 am

this where just the same as the other versions...????...

0 reply
supersario 97 wrote on December 6 2007, 12:28 am

(-.-)...

guest
You may want to rate the tab now too:
select rating
Please do not post tabs as comments. Select "correction" instead!