Oops, an error
Loading. Please wait.

Your Guardian Angel Tab

version 8
version 8
3,690 views 6 this week
no commentswrite comment
1 2 3 4 5
please rate
add to favorites
launch autoscroll
font size
0
reset
how to read this tab
guitar tuner
Tab Pro tools
  • play this tab
  • loop segment
  • change instrument
  • show fretboard
  • metronome
×
Best way to learn
"Your Guardian Angel"
Autoscroll
slow
fast
+/-
esc
set tempo
stop
Contributor
Difficulty
Tuning
novice
C G C F A D
Verse 1
D|-----------------------------------------------|
A|-----------------------------------------------|
F|-----------------------------------------------|
C|--5--5-5-5-5-0--0-0-0-0-2--2-2-2-2-5--5-5-5-5--|
G|--5--5-5-5-5-0--0-0-0-0-2--2-2-2-2-3--3-3-3-3--|
C|--5--5-5-5-5-0--0-0-0-0-2--2-2-2-2-------------| X4
    D  D U D U D  D U D U D  D U D U D  D U D U 

Chorus

D|-----------------------------------------------|
A|-----------------------------------------------|
F|-----------------------------------------------|
C|--5----------0----------2----------5-----------|
G|--5----------0----------2----------3-----------|
C|--5----------0----------2----------------------| X2
    D          D          D          D         

Verse 2
D|-----------------------------------------------|
A|-----------------------------------------------|
F|-----------------------------------------------|
C|--5--5-5-5-5-0--0-0-0-0-2--2-2-2-2-5--5-5-5-5--|
G|--5--5-5-5-5-0--0-0-0-0-2--2-2-2-2-3--3-3-3-3--| X2
    D  D U D U D  D U D U D  D U D U D  D U D U 

Bridge (Acosutic)
D|-------------------------------------------------------------------------------------------|
A|-------------------------------------------------------------------------------------------|
F|-----------------------------------7--7-7~~-7----------------------------------------------|
C|--5--5-5-5-5-7--7-7~~-7-5--5-5-5-5-5--5-5~~-5-0--0-0-0-0-7--7-7~~-7-4--4-4-4-4--7~~5~~4~~--|
G|--5--5-5-5-5-5--5-5~~-5-5--5-5-5-5-5--5-5~~-5-0--0-0-0-0-0--0-0~~-0-0--0-0-0-0--0~~0~~0~~--|
C|--5--5-5-5-5-5--5-5~~-5-5--5-5-5-5-5--5-5~~-5-0--0-0-0-0-0--0-0~~-0-0--0-0-0-0--0~~0~~0~~--|
    D  D U D U D  D U   U D  D U D U D  D U   U D  D U D U D  D U   U D  D U D U  D  D  D
D|-------------------------------------------------------------------------------------------|
A|-------------------------------------------------------------------------------------------|
F|-------------------------------------------------------------------------------------------|
C|--2--2-2-2-2-4--4-4~~-4-2--5-5-5-5-4--4-4~~-4-5--5-5-5-5-7--7-7-7-7------------------------|
G|--2--2-2-2-2-2--2-2~~-2-2--2-2-2-2-2--2-2~~-2-3--3-3-3-3-5--5-5-5-5------------------------|
C|--2--2-2-2-2-2--2-2~~-2-2--2-2-2-2-2--2-2~~-2----------------------------------------------|
    D  D U D U D  D U   U D  D U D U D  D U   U D  D U D U D  D U D U

D|-------------------------------------------------------------------------------------------|
A|-------------------------------------------------------------------------------------------|
F|-----------------------------------7--7-7~~-7----------------------------------------------|
C|--5--5-5-5-5-7--7-7~~-7-5--5-5-5-5-5--5-5~~-5-0--0-0-0-0-7--7-7~~-7-4--4-4-4-4--7~~5~~4~~--|
G|--5--5-5-5-5-5--5-5~~-5-5--5-5-5-5-5--5-5~~-5-0--0-0-0-0-0--0-0~~-0-0--0-0-0-0--0~~0~~0~~--|
C|--5--5-5-5-5-5--5-5~~-5-5--5-5-5-5-5--5-5~~-5-0--0-0-0-0-0--0-0~~-0-0--0-0-0-0--0~~0~~0~~--|
    D  D U D U D  D U   U D  D U D U D  D U   U D  D U D U D  D U   U D  D U D U  D  D  D
D|-------------------------------------------------------------------------------------------|
A|-------------------------------------------------------------------------------------------|
F|-------------------------------------------------------------------------------------------|
C|--2--2-2-2-2-4--4-4~~-4-2--5-5-5-5-4--4-4~~-4--5-5------7-7--------------------------------|
G|--2--2-2-2-2-2--2-2~~-2-2--2-2-2-2-2--2-2~~-2--3-3------5-5--------------------------------|
C|--2--2-2-2-2-2--2-2~~-2-2--2-2-2-2-2--2-2~~-2----------------------------------------------|
    D  D U D U D  D U   U D  D U D U D  D U   U  D U      D U

Bridge(Electric Distorded)
D|-------------------------------------------------------------------------------------------|
A|-------------------------------------------------------------------------------------------|
F|-------------------------------------------------------------------------------------------|
C|--5--5-5-5-5-5--5-5-5-5-5--5-5-5-5-5--5-5-5-5-0--0-0-0-0-0--0-0-0-0-0--0-0-0-0-0--0-0-0-0--|
G|--5--5-5-5-5-5--5-5-5-5-5--5-5-5-5-5--5-5-5-5-0--0-0-0-0-0--0-0-0-0-0--0-0-0-0-0--0-0-0-0--|
C|--5--5-5-5-5-5--5-5-5-5-5--5-5-5-5-5--5-5-5-5-0--0-0-0-0-0--0-0-0-0-0--0-0-0-0-0--0-0-0-0--|
    D  D U D U D  D U D U D  D U D U D  D U D U D  D U D U D  D U D U D  D U D U D  D U D U 

D|-------------------------------------------------------------------------------------------|
A|-------------------------------------------------------------------------------------------|
F|-------------------------------------------------------------------------------------------|
C|--2--2-2-2-2-2--2-2-2-2-2--2-2-2-2-2--2-2-2-2-5--5-5-5-5-5--5-5-5-5-5--5-5-5-5-7--7-7-7-7--|
G|--2--2-2-2-2-2--2-2-2-2-2--2-2-2-2-2--2-2-2-2-3--3-3-3-3-3--3-3-3-3-3--3-3-3-3-5--5-5-5-5--|
C|--2--2-2-2-2-2--2-2-2-2-2--2-2-2-2-2--2-2-2-2----------------------------------------------| X2
    D  D U D U D  D U D U D  D U D U D  D U D U D  D U D U D  D U D U D  D U D U D  D U D U 

Chorus/Outro distorded
D|-----------------------------------------------|
A|-----------------------------------------------|
F|-----------------------------------------------|
C|--5--5-5-5-5-0--0-0-0-0-2--2-2-2-2-5--5-5-5-5--|
G|--5--5-5-5-5-0--0-0-0-0-2--2-2-2-2-3--3-3-3-3--|
C|--5--5-5-5-5-0--0-0-0-0-2--2-2-2-2-------------| To fade...
    D  D U D U D  D U D U D  D U D U D  D U D U
comments
We did not receive enough feedback on this tab! Please rate:
print report bad tab
1 2 3 4 5
I want to post or [tab]
guest
You may want to rate the tab now too:
select rating
Please do not post tabs as comments. Select "correction" instead!