Oops, an error
Loading. Please wait.

The Eagle Tab

205 views 1 this week
no commentswrite comment
1 2 3 4 5
please rate
add to favorites
launch autoscroll
font size
0
reset
how to read this tab
guitar tuner
Tab Pro tools
  • play this tab
  • loop segment
  • change instrument
  • show fretboard
  • metronome
×
Best way to learn
"The Eagle"
Autoscroll
slow
fast
+/-
esc
set tempo
stop
Contributor
Difficulty
Tabbers playing skills
novice
advanced
The Eagle
By The red sun band

http://www.myspace.com/theredsunband
My first tab

Verse:
       i think this is correct. :)        
E||--------------------------|--------------------------|
B||--------------------------|--------------------------|
G||--7--x--7--x--7--x--7--x--|--7--x--7--x--7--x--7--x--|
D||--7--x--7--x--7--x--7--x--|--7--x--7--x--7--x--7--x--|
A||--5--x--5--x--5--x--5--x--|--5--x--5--x--5--x--5--x--|
E||--------------------------|--------------------------|


  
E||--------------------------|------------------------------|
B||--------------------------|------------------------------|
G||--------------------------|--7--7--7--7------------------|
D||--8--x--8--x--8--x--8--x--|--7--7--7--7--15--15--15--15--|
A||--8--x--8--x--8--x--8--x--|--5--5--5--5--15--15--15--15--|
E||--6--x--6--x--6--x--6--x--|--------------13--13--13--13--|

Chorus: im 100% sure this is wrong, but anyway

   H         Q    Q       H        H                  
E||-----------------------|--------------------|-------||
B||-----------------------|--------------------|-------||
G||------------------7----|--------------------|-------||
D||--15--------15----7----|--8--------8--------|-------||
A||--15--------15----5----|--8--------8--------|-------||
E||--13--------13---------|--6--------6--------|-------||

hopefully some can post a more accurate one.



comments
We did not receive enough feedback on this tab! Please rate:
print report bad tab
1 2 3 4 5
I want to post or [tab]
guest
You may want to rate the tab now too:
select rating
Please do not post tabs as comments. Select "correction" instead!