Oops, an error
Loading. Please wait.

Twenty One Tab

832 views 1 this week
no commentswrite comment
1 2 3 4 5
3 more votes to show rating
add to favorites
launch autoscroll
font size
0
reset
how to read this tab
guitar tuner
Autoscroll
slow
fast
+/-
esc
set tempo
stop
Help us to improve Ultimate-Guitar.com Take our survey!
×
Author
Difficulty
novice
Twenty one by The Red West
Tabbed By:Colin Ball
Good Acoustic Song :)
Tuning
F,A#,D#,G#,C,f
h = Hammer on
p = Pull Off
~ = Let it ring

Intro:
f |--1-111--1-111--1-111--3------------------------------------|
C |--3-333--3-333--3-333--3------1-111--1-111------------------|
G#|--2-222--2-222--0-000--0------0-000--0-000---1-111--1-111---|
D#|-00-000--0-000--0-000--0-0h2--2-222--2-222---0-000--0-000---|
A#|--------3------2-------2-0h2-33-333-33-333--22-222--2-222---|
F |----------------------33------------------------------------|

Verse 1:
f |--1-111--1-111--1-111--3------------------------------------|
C |--3-333--3-333--3-333--3------1-111--1-111------------------|
G#|--2-222--2-222--0-000--0------0-000--0-000---1-111--1-111---|
D#|-00-000--0-000--0-000--0-0h2--2-222--2-222---0-000--0-000---|
A#|--------3------2-------2-0h2-33-333-33-333--22-222--2-222---|
F |----------------------33------------------------------------|
   All that ive seen is my love spinning round in circles
   This cant be me

f |--1-111--1-111--1-111--3------------------------------------|
C |--3-333--3-333--3-333--3------1-111--1-111------------------|
G#|--2-222--2-222--0-000--0------0-000--0-000---1-111--1-111---|
D#|-00-000--0-000--0-000--0-0h2--2-222--2-222---0-000--0-000---|
A#|--------3------2-------2-0h2-33-333-33-333--22-222--2-222---|
F |----------------------33------------------------------------|
   Long are the days, are the nights i spend watching people
   Think im alright

Chorus:
f |---------------------------------------|
C |-----------------1-111-----------------|
G#|--2-222--2-222---0-000----0-0h2p0------|
D#|--3-333--3-333---2-222-0h2-------20----|
A#|--3-333--3-333--33-333-----------------|
F |-11-111-11-111-------------------------|
   Its not that easy

f |-------------------------3-333---------|
C |-----------------1-111---3-333---------|
G#|--2-222--2-222---0-000---0-000---------|
D#|--3-333--3-333---2-222---0-000---------|
A#|--3-333--3-333--33-333---2-222---------|
F |-11-111-11-111----------33-333---------|
   Its not that hard

f |-------------------------3-333-----------3-333-------------------|
C |-----------------1-111---3-333---1-111---3-333--0~---------------|
G#|--2-222--2-222---0-000---0-000---2-222---0-000--1~---------------|
D#|--3-333--3-333---2-222---0-000---2-222---0-000--0~---------------|
A#|--3-333--3-333--33-333---2-222--00-000---2-222--2~---------------|
F |-11-111-11-111----------33-333----------33-333-------------------|
   To find a reason to carry on, to carry on

Verse 2:
f |--1-111--1-111--1-111--3------------------------------------|
C |--3-333--3-333--3-333--3------1-111--1-111------------------|
G#|--2-222--2-222--0-000--0------0-000--0-000---1-111--1-111---|
D#|-00-000--0-000--0-000--0-0h2--2-222--2-222---0-000--0-000---|
A#|--------3------2-------2-0h2-33-333-33-333--22-222--2-222---|
F |----------------------33------------------------------------|
   Colder than ice or a friend whos been told he's nothing
   Please, know how i feel


f |--1-111--1-111--1-111--3------------------------------------|
C |--3-333--3-333--3-333--3------1-111--1-111------------------|
G#|--2-222--2-222--0-000--0------0-000--0-000---1-111--1-111---|
D#|-00-000--0-000--0-000--0-0h2--2-222--2-222---0-000--0-000---|
A#|--------3------2-------2-0h2-33-333-33-333--22-222--2-222---|
F |----------------------33------------------------------------|
   Wronged to by a love
   By the way, dont forget your coat as you finally go

Chorus:
f |---------------------------------------|
C |-----------------1-111-----------------|
G#|--2-222--2-222---0-000----0-0h2p0------|
D#|--3-333--3-333---2-222-0h2-------20----|
A#|--3-333--3-333--33-333-----------------|
F |-11-111-11-111-------------------------|
   Its not that easy

f |-------------------------3-333---------|
C |-----------------1-111---3-333---------|
G#|--2-222--2-222---0-000---0-000---------|
D#|--3-333--3-333---2-222---0-000---------|
A#|--3-333--3-333--33-333---2-222---------|
F |-11-111-11-111----------33-333---------|
   Its not that hard

f |-------------------------3-333-----------3-333-------------------|
C |-----------------1-111---3-333---1-111---3-333--0~---------------|
G#|--2-222--2-222---0-000---0-000---2-222---0-000--1~---------------|
D#|--3-333--3-333---2-222---0-000---2-222---0-000--0~---------------|
A#|--3-333--3-333--33-333---2-222--00-000---2-222--2~---------------|
F |-11-111-11-111----------33-333----------33-333-------------------|
   To find a reason to carry on, to carry on


Interlude:
f |--1-111--1-111--1-111--3------------------------------------|
C |--3-333--3-333--3-333--3------1-111--1-111------------------|
G#|--2-222--2-222--0-000--0------0-000--0-000---1-111--1-111---|
D#|-00-000--0-000--0-000--0-0h2--2-222--2-222---0-000--0-000---|
A#|--------3------2-------2-0h2-33-333-33-333--22-222--2-222---|
F |----------------------33------------------------------------|

f |--1-111--1-111--1-111--3------------------------------------|
C |--3-333--3-333--3-333--3------1-111--1-111------------------|
G#|--2-222--2-222--0-000--0------0-000--0-000---1-111--1-111---|
D#|-00-000--0-000--0-000--0-0h2--2-222--2-222---0-000--0-000---|
A#|--------3------2-------2-0h2-33-333-33-333--22-222--2-222---|
F |----------------------33------------------------------------|


Chorus:
f |---------------------------------------|
C |-----------------1-111-----------------|
G#|--2-222--2-222---0-000----0-0h2p0------|
D#|--3-333--3-333---2-222-0h2-------20----|
A#|--3-333--3-333--33-333-----------------|
F |-11-111-11-111-------------------------|
   Its not that easy

f |-------------------------3-333---------|
C |-----------------1-111---3-333---------|
G#|--2-222--2-222---0-000---0-000---------|
D#|--3-333--3-333---2-222---0-000---------|
A#|--3-333--3-333--33-333---2-222---------|
F |-11-111-11-111----------33-333---------|
   Its not that hard

f |-------------------------3-333-----------3-333-------------------|
C |-----------------1-111---3-333---1-111---3-333--0~~--------------|
G#|--2-222--2-222---0-000---0-000---2-222---0-000--1~~--------------|
D#|--3-333--3-333---2-222---0-000---2-222---0-000--0~~--------------|
A#|--3-333--3-333--33-333---2-222--00-000---2-222--2~~--------------|
F |-11-111-11-111----------33-333----------33-333-------------------|
   To find a reason to carry on, to carry on
Suggest correction
Give kudos to tab author, rate the tab!
1 2 3 4 5
comments
print report bad tab
guest
You may want to rate the tab now too:
select rating
Wanna post a correction for this tab? Suggest correction