Oops, an error
Loading. Please wait.

Sinasamba Kita Chords

1,654 views 15 this week
no commentswrite comment
1 2 3 4 5
please rate
add to favorites
launch autoscroll
font size
0
reset
transpose
0
reset
simplify chords
display chords
guitar tuner
Tab Pro tools
  • play this tab
  • loop segment
  • change instrument
  • show fretboard
  • metronome
×
Best way to learn
"Sinasamba Kita"
Autoscroll
slow
fast
+/-
esc
set tempo
stop
Contributor
Difficulty
novice
Intro: D - Dbdim - Bm - A - G


Verse 1:
D
Mula sa putik ako'y hinango
Bm
Nilinis at binago
Em
Walang kasing dakila
        A
Ang pag-ibig Mo


Verse 2: (Do chords of Verse 1)
'Di ko malilimutan
Ang Iyong mga kabutihan
Habang ako'y nabubuhay
Ito ay taglay


Refrain 1:
           Bm         F#m
Labi ko'y sambit ang papuri
          Bm    F#m
Ang puso ko'y umaawit
      Bm        F#m
Dios noon at kailanpaman
  Em                   A
Dakila ang Iyong kabutihan


Verse 3: (Do chords of Verse 1)
Ang buhay ko't kalakasan
Sa'yo lamang ilalaan
Bilang isang pag-aalay
Sa'yong harapan


Refrain 2: (Do chords of Refrain 1)
'Di man sapat upang maiganti
Ang lahat kong inaari
Dios boung pagkukumbabang
Aking sinasambit


Chorus:
       D
Sinasamba kita
      Bm
Pinupuri kita
Em            G        A
Ang Pangalan Mo'y itataas
       D
Sinasamba kita
      Bm
Pinupuri kita
G              A          D
Dios sa buhay ko'y dakila Ka


-Repeat Verse 3, Refrain 2 & Chorus-


Bridge:
      Bm               F#m
Alam kong ako'y nakita Mo
   Bm                       F#m
Hatulan Mo ayon sa pag-ibig Mo
       Bm              F#m
Itong buhay ay inaalay ko
Em                       A - Bb
Ito ang tanging magagawa ko


Solo:
          Eb                Cm
e|-------------------------------------|
B|-------------------------------------|
G|-7-8-10-10--8-8~~--7-8-10-10--8-8~~--|
D|-------------------------------------|
A|-------------------------------------|
E|-------------------------------------|

    Fm             Ab              Bb
e|---------------------------------------|
B|---------------------------------------|
G|-/12--10-10\8-8--7-8-10-10/12-12/13-13-|
D|---------------------------------------|
A|---------------------------------------|
E|---------------------------------------|

            Eb                  Cm
e|-------------------------------------18-------------------|
B|-15-16-18-18~~16-16--15-16-18-18-18b(20)-18b(20)r(18)-16~-|
G|----------------------------------------------------------|
D|----------------------------------------------------------|
A|----------------------------------------------------------|
E|----------------------------------------------------------|

         Ab                          Bb
e|-----------------------------15-16-18~-|
B|-------------16~~-----18~~18-----------|
G|-17-15-13-15-----15/17-----------------|
D|---------------------------------------|
A|---------------------------------------|
E|---------------------------------------|


e|-18-16-15h16p15--15---------------------|
B|---------------18--18-16h18p16-15h16p15-|
G|----------------------------------------|
D|----------------------------------------|
A|----------------------------------------|
E|----------------------------------------|


e|------------------------------------/18~-|
B|---15------------------------------------|
G|-17--17-15h17p15-13h15p13-12h13p12-------|
D|----------------------------------15-----|
A|-----------------------------------------|
E|-----------------------------------------|


Chorus 2:
       Eb
Sinasamba kita
      Cm
Pinupuri kita
Fm            Ab       Bb
Ang Pangalan Mo'y itataas
       Eb
Sinasamba kita
      Cm
Pinupuri kita
Ab             Bb         Cm
Dios sa buhay ko'y dakila Ka


-Repeat Chorus 2-


Ending:
Ab             Bb         Eb-Ddim-Cm-Bb-Ab-Bb-Eb
Dios sa buhay ko'y dakila Ka

*Legend:

H - hammer-on
p - pull-off
B - bend
r - release
~ - vibrato
comments
We did not receive enough feedback on this tab! Please rate:
print report bad tab
1 2 3 4 5
I want to post or [tab]
guest
You may want to rate the tab now too:
select rating
Please do not post tabs as comments. Select "correction" instead!