Oops, an error
Loading. Please wait.

Falling Down tab

1,060 views 1 this week
no commentswrite comment
1 2 3 4 5
3 more votes to show rating
add to favorites
×
Save as Personal and add changes to this tab that will be seen only by you. Learn more ›
×
You can save this tab as Personal to edit and correct it or add notes. All changes will be seen only by you. Learn more »
launch autoscroll
font size
0
reset
how to read this tab
guitar tuner
edit
Autoscroll
slow
fast
+/-
esc
set tempo
stop
Difficulty
intermediate
INTRO
 G                     Em
e--------------------------------------------|
b-----------------------12--12-12--15--15-15-|
g-12--12-12--12--12-12--12--12-12--12--12-12-|
d-12--12-12--12--12-12--14--14-14--14--14-14-|
a-10--10-10--10--10-10-----------------------|
e--------------------------------------------|
 G                     Em
e----------------------------------------------------|
b-----------------------12-12-12-15--15--12-12-12-15-|
g-12--12-12--12--12-12--12-12-12-12--12--12-12-12-12-|
d-12--12-12--12--12-12--14-14-14-14--14--14-14-14-14-|
a-10--10-10--10--10-10-------------------------------|
e----------------------------------------------------|

VERSE
G                                       Em
What's this shit goin' down 'bout the FCC

Gone to war against obscenities
        G                                          Em
Well in times like these you better watch what you say

Watch 'em take your fucking rights away

CHORUS
C                 G
Darling I've been falling down
C                  G
Darling we've been falling down
Am              D7
Don't you wanna know?  Oh oh oh

INTERLUDE
 G          Em
e-------------3-2-0--0--3-2-0-|
b-------------0-0-0--0--0-0-0-|
g-------------0-0-0--0--0-0-0-|
d-------------5-4-2-----5-4-2-|
a-----------------------------|
e-----------------------------|

G                                        Em
Ah just a shame, just a drag, just the USA

More concern about the things we say
             G                                         Em
But when the lies they tell, I'll tell that's what's unjust

What the fuck they've been tellin' us

CHORUS
C                 G
Darling I've been falling down
C                  G
Darling we've been falling down
Am                    D7
Oh don't you take it away
Am              D7              G
Don't you wanna know?  Oh oh oh

BRIDGE
           D    C   G
And it's a long way down
           D    C   G
And it's a long way down
           D    C   G

INTERLUDE
 G          Em
e--------------------------3-2-0-2-3-|
b--------------------------0-0-0-0-0-|
g--------------------------0-0-0-0-0-|
d------------2-2-0-2-2-0---5-4-2-4-5-|
a------------------------------------|
e------------------------0-----------|

VERSE
G                                      Em
Here comes the witchunt, blacklisted FCC

Callin out the fuckin' cavalry
              G                                  Em
But when they come for you, ah don't you come to me

As you sit through this insanity

CHORUS
C                 G
Darling I've been falling down
C                  G
Darling we've been falling down
Am                    D7
Oh don't you take it away
Am                    D7
Oh don't you take it away
Am              D7              G
Don't you wanna know?  Oh oh oh

            
            
Suggest correction
Creating personal tab
Creating personal tab
You can edit any tab online and save it as your Personal.

You can edit, replace or remove any tab part or add personal notes – all changes will be seen only by you.

Personal tabs can be accessed anytime from any device, even offline.
Learn more »
Give kudos to tab author, rate the tab!
1 2 3 4 5
comments
print report bad tab
guest
Wanna post a correction for this tab? Suggest correction