Oops, an error
Loading. Please wait.

Home tab

451 views 1 this week
2 commentsread comments
1 2 3 4 5
3 more votes to show rating
add to favorites
×
Save as Personal and add changes to this tab that will be seen only by you. Learn more ›
×
You can save this tab as Personal to edit and correct it or add notes. All changes will be seen only by you. Learn more »
launch autoscroll
font size
0
reset
how to read this tab
guitar tuner
edit
Autoscroll
slow
fast
+/-
esc
set tempo
stop
Difficulty
The Redwalls
Home
Tabbed By: AJNR
Key Eb but it might also be D#

e|---------------10~----------------------------------10~---------------|
B|-----8~---9~----------8~---9~----11~------8~---9~-----------8~--------|
G|----------------------------------------------------------------------|
D|----------------------------------------------------------------------|
A|----------------------------------------------------------------------|
E|----------------------------------------------------------------------|
etc...

And [Eb]home is [Ab]where you [Bb]hang you [Eb]head,
Is [Ab]where you [Bb]rest your [Eb]bones,
Is [Ab]where you're [Bb]livin'. [Eb]   [Ab]    [Bb]
And [Eb]free is [Ab]how you [Bb]move your [Eb]mind,
Is [Ab]how you [Bb]feel in[Eb]side,
Is [Ab]what you're [Bb]doin'. [Eb]

e|-------------------------------------|
B|-------------------------------------|
G|-------------------------------------|
D|---------------8---------------------| Repeat however many...
A|---6---6-8/10------------------------|
E|-----------------------4---4-6-8-----|

Little [Eb]girl, yeah, [Ab]
what you doin'?
[Eb]No one got to tell you its the [Ab]hardest part
[Eb]In a world, yeah, [Ab]
but you're knowin'
[Eb]Goin' it together is the [Ab]place to start
[B]And though it brings me [Bb]down

To [Eb]home
Is [Ab]where you [Bb]hang you [Eb]head,
Is [Ab]where you [Bb]rest your [Eb]bones,
Is [Ab]where you're [Bb]livin'. [Eb]  [Ab]  [Bb]

ITS A SIMPLE SOLO   FIGURE OUT!!!

e|-------------------------------------|
B|-------------------------------------|
G|-------------------------------------|
D|---------------8---------------------| Repeat however many...
A|---6---6-8/10------------------------|
E|-----------------------4---4-6-8-----|

Oh little [Eb]girl, whoa, [Ab]
What you doin'?
[Eb]No one got to tell you its the [Ab]hardest part
[Eb]In a world, yeah, [Ab]
but we're knowin'
[Eb](Something something something something [Ab]blah)
[B]And though it brings me [Bb]down

To [Eb]home
Is [Ab]where you [Bb]hang your [Eb]head,
Is [Ab]where you [Bb]rest your [Eb]bones,
Is [Ab]where you're [Bb]livin' [Eb]  [Ab]  [Bb]
And [Eb]free 
Is [Ab]how you [Bb]move your [Eb]mind,
Is [Ab]how you [Bb]feel [Eb]inside,
Is [Ab]what you're [Bb]doin'


Should be around the area....'twas bored i'd say 98% correct  :\

            
            
Suggest correction
Creating personal tab
Creating personal tab
You can edit any tab online and save it as your Personal.

You can edit, replace or remove any tab part or add personal notes – all changes will be seen only by you.

Personal tabs can be accessed anytime from any device, even offline.
Learn more »
Give kudos to tab author, rate the tab!
1 2 3 4 5
comments
print report bad tab
2 comments total.
0 reply
huxtablesrock 10 Nov 09, 2007 10:05 AM

It's
actually:

e|-------------------------------------|
B|-------------------------------------|
G|---------------------
----------------|
D|---------------8---------------------| Repeat however
many...
A|---6---6-8/10----------------3-4-----|
E|-----------------------4---4---------|

0 reply
huxtablesrock 10 Nov 09, 2007 10:07 AM

It's actually:

e|-------------------------------------|
B|-------------------------------------|
G|-------------------------------------|
D|---------------8---------------------| Repeat however many...
A|---6---6-8/10----------------3-4-----|
E|-----------------------4---4---------|



(I don't know what was up w/ the formatting...

guest
Wanna post a correction for this tab? Suggest correction