Oops, an error
Loading. Please wait.

Thank You intro tab

version 1
version 1

Intro

Whole song

653 views 1 this week
1 commentread comment
1 2 3 4 5
3 more votes to show rating
add to favorites
×
Save as Personal and add changes to this tab that will be seen only by you. Learn more ›
×
You can save this tab as Personal to edit and correct it or add notes. All changes will be seen only by you. Learn more »
launch autoscroll
font size
0
reset
how to read this tab
guitar tuner
edit
Autoscroll
slow
fast
+/-
esc
set tempo
stop
Author
Difficulty
-------------------------------------------------------------------------------
                             Thank You - the Redwalls
-------------------------------------------------------------------------------
Tabbed by: babyshambler
Email: libertineslover@yahoo.com

Tuning: standard

 I just tabbed the guitar licks at the intro. I will tab the rest if I ever get around to it :)

e|----------------------------------0----2----3---4--5-6--5------------------|
B|--------------------------------------------------------5------------------|
G|--5b\4--2~~-------2h4-2-------1------2--2/3---4---------6------------------|
D|---------------2h4---------------------------------------------------------|
A|---------------------------2-----------------------------------------------|
E|---------------------------------------------------------------------------|


| b  bend
| /  slide up
| \  slide down
| h  hammer-on
| p  pull-off
| ~  vibrato
| +  harmonic
| x  Mute note
===============================================================================
Suggest correction
Creating personal tab
Creating personal tab
You can edit any tab online and save it as your Personal.

You can edit, replace or remove any tab part or add personal notes – all changes will be seen only by you.

Personal tabs can be accessed anytime from any device, even offline.
Learn more »
Give kudos to tab author, rate the tab!
1 2 3 4 5
comments
print report bad tab
1 comment total.
0 reply
babyshambler 16 Jun 05, 2006 09:48 AM

I just noticed that there is a 6 on the e string.. thats not supposed to be there :)

guest
You may want to rate the tab now too:
select rating
Wanna post a correction for this tab? Suggest correction