Oops, an error
Loading. Please wait.

Banditos bass

version 2
version 2

Whole song

Interactive

5,645 views 3 this week
1 commentread comment
1 2 3 4 5
x 6
add to favorites
×
Save as Personal and add changes to this tab that will be seen only by you. Learn more ›
×
You can save this tab as Personal to edit and correct it or add notes. All changes will be seen only by you. Learn more »
launch autoscroll
font size
0
reset
guitar tuner
backing track
0:00
0:00
edit
Autoscroll
slow
fast
+/-
esc
set tempo
stop
You can play this song without dropping the D and it sounds pretty good.  The very last 
down is a little muddy, but the bass is drowned out by the drums in that last part 
so climb it down however you think sounds best.


 kicks in at 0:14

VERSE(play each 16 times)
G-------------------------------------------------------------------|
D-------------------------------------------------------------------| x2
A-77777777777777775555555555555555----------------7777777777777777--|
E---------------------------------5555555555555555------------------|

PRE-CHORUS
G------------------------------------|
D------------------------------------|
A-7-77-7------7-77-7-----------------|
E-------5-55-5------7-777777777777---|

CHORUS
G-----------------------------------------------------------------|
D-----------------------------------------------------------------|
A-----------------7777777744444444----------------7(short ring)---|
E-5555555577777777----------------5555555577777777----------------|

TRANSITION
G--------------|
D--------------|
A---7---7------|
E-5---5---4-45-|

CHORUS B
G------------------------------------------------------------|
D------------------------------------------------------------|
A-----------------7777777744444444---------------------------|
E-5555555577777777----------------5(ring)-7(ring)------------|

VERSE x2

PRE-CHORUS

CHORUS

TRANSITION

CHORUS B

VERSE x2

PRE-CHORUS

CHORUS

TRANSITION

CHORUS B

VERSE

OUTRO
G---------------------------------------------------------|
D----4446-46764---4446-46764---7775-4-2-2-2-2-2-2-2-2-2---|
A-777----------555----------------------------------------|
E---------------------------555---------------------------|

G---------------------------------------------------------|
D----4446-46764---4446-46764---777777777777---------------|
A-777----------555-------------------------75-------------|
E---------------------------555---------------765-3210----|

            
            
Suggest correction
Creating personal tab
Creating personal tab
You can edit any tab online and save it as your Personal.

You can edit, replace or remove any tab part or add personal notes – all changes will be seen only by you.

Personal tabs can be accessed anytime from any device, even offline.
Learn more »
comments
print report bad tab
1 comment total.
0 reply
Zaqq 589 Jun 05, 2012 06:33 AM

Pretty accurate, but you missed a part just before Outro. It seems he plays something like that there:

A-7---7---7---7-77
E---00--00--00----

I'm not 100% sure, I just tell that you didn't tab it and it is audible.

guest
You may want to rate the tab now too:
select rating
Wanna post a correction for this tab? Suggest correction