Oops, an error
Loading. Please wait.

Banditos chords

version 2
version 2

Whole song

Interactive

34,289 views 54 this week
5 commentsread comments
1 2 3 4 5
x 14
add to favorites
×
Save as Personal and add changes to this tab that will be seen only by you. Learn more ›
×
You can save this tab as Personal to edit and correct it or add notes. All changes will be seen only by you. Learn more »
launch autoscroll
font size
0
reset
transpose
0
reset
simplify chords
display chords
guitar tuner
backing track
0:00
0:00
edit
Autoscroll
slow
fast
+/-
esc
set tempo
stop
Author
Unregistered
Strumming
There is no strumming pattern for this song yet. and get +5 IQ
"Banditos" - The Refreshments
(from the album "Fizzy, Fuzzy, Big and Buzzy", 1996)

[CHORD CHART]
I play the verses for this song using the chords in
standard position (that'd be the first version of
each chord shown), and the choruses using bar chords
(makes the change to the C#m easier, and better
sounding).

   E or E   D   A or A    B or B   G#   C#m or C#m
e:-0----7---2---0----5----2----7----4----4------0--|
B:-0----9---3---2----5----4----7----4----5------2--|
G:-1----9---2---2----6----4----8----5----6------1--|
D:-2----9---0---2----7----4----9----6----6------2--|
A:-2----7--(0)--0----7----2----9----6----4---------|
E:-0---(7)-----------5---(2)---7----4---(4)--------|

There're only two main lead guitar parts that ya need:

[RIFF1](This is the main riff played throughout the
        song: After 1st verse, w/2nd verse, after
        1st chorus, w/3rd verse)

  E                        D
e:---4----0--|---0-----0--|---4----0--|---0-----0-|
B:-----------|------------|-----------|-----------|
G:/4----2----|/4---2------|/4----2----|/4---2-----|
D:-----------|------------|-----------|-----------|
A:-----------|------------|-----------|-----------|
E:-----------|------------|-----------|-----------|

  A                  E
e:--4------5--|--5--|---10--9---7|--5-4h5p4|
B:------------|-----|------------|---------|
G:4----4/6----|-6---|-11---9---7-|-6-------|
D:------------|-----|------------|---------|
A:------------|-----|------------|---------|
E:------------|-----|------------|---------|

[RIFF2](The lead guitar plays this in the first part of
        each chorus, the "Give your ID card...." part.
        But it won't sound good unless you have two
        guitars going .. If yer playing by yourself,
        just play the chords listed with the lyrics below.
        That is, leave out the maj7 chords)

  E            Emaj7 E            Amaj7 A          Amaj7 A
e:--------------------|-------------------|----------------|
B:--------------------|-------------------|----------------|
G:9------------8-----9|-----------13----14|--------13----14|
D:9------------9-----9|-----------14----14|--------14----14|
A:7------------7-----7|-----------12----12|--------12----12|
E:--------------------|-------------------|----------------|

            Emaj7 E           Emaj7 E      B   B6  B   B6
e:-----------------|-----------------|----|----------------|
B:-----------------|-----------------|----|----------------|
G:----------8-----9|----------8-----9|----|----------------|
D:----------9-----9|----------9-----9|----|4---6---4---6---|
A:----------7-----7|----------7-----7|----|2---2---2---2---|
E:-----------------|-----------------|----|----------------|

  B   B6  B   B6
e:--------------|
B:--------------|
G:--------------|
D:4---6---4---6-|
A:2---2---2---2-|
E:--------------|

THE SONG:

[Verse 1]
        E
So just how far down do you want to go
         D
We could talk it out over a cup of joe
              A
and you could look deep into my eyes like I was a
E
supermodel, uh huh

(w/ RIFF1) E D A E

          E(w/RIFF1)
Well it's you and me baby, no-one else we can trust
          D
Don't say nothing to no-one, no-how or we're bust
          A
and never crack a smile, or flinch, or cry for
E
nobody, uh huh

[Chorus]
                 E(w/RIFF2)
  Well give your I.D. card to the border gaurd
            A
  Yeah your alias says you're captain Jean Luc Picard
          E
  of the United Federation of Planets
                        B
  'Cause he won't speak English anyway
  A              B
   And everybody knows
           E                C#m
  that the world is full of stupid people
     A                         B
  So meet me at the mission at midnight
                    E      A E A E G# A
  and we'll divy up there
  A          B
   Everybody knows
           E                C#m
  that the world is full of stupid people
       A                    B
  Yeah I got the pistols so I'll keep the pesos
                      E
  yeah and that seems fair

[Interlude]
(w/RIFF1) E D A E

[Verse 2]
           E(w/RIFF1)
So put the sugar in the tank of the sherrif's car
              D
and slash the deputy's tires they won't get very far
          A
when they finally get the word that there's been a
E
hold-up, uh huh

[Chorus]
                 E(w/RIFF2)
  Well give your I.D. card to the border gaurd
            A
  Yeah your alias says you're captain Jean Luc Picard
          E
  of the United Federation of Planets
                        B
  'Cause he won't speak English anyway
  A              B
   And everybody knows
           E                C#m
  that the world is full of stupid people
     A                         B
  So meet me at the mission at midnight
                    E      A E A E G# A
  and we'll divy up there
  A          B
   Everybody knows
           E                C#m
  that the world is full of stupid people
       A                    B
  Yeah I got the pistols so I'll keep the pesos
                      E
  yeah and that seems fair

[SOLO] E D A E E D A E

[Chorus]
                 E(w/RIFF2)
  Well give your I.D. card to the border gaurd
            A
  Yeah your alias says you're captain Jean Luc Picard
          E
  of the United Federation of Planets
                        B
  'Cause he won't speak English anyway
  A              B
   And everybody knows
           E                C#m
  that the world is full of stupid people
     A                         B
  So meet me at the mission at midnight
                    E      A E A E G# A
  and we'll divy up there
  A          B
   Everybody knows
           E                C#m
  that the world is full of stupid people
       A                    B
  Yeah I got the pistols so I'll keep the pesos
                      E
  yeah and that seems fair

[Outro]
             D
  That seems fair
             A
  That seems fair
                  E
  Well that seems fa-i-a-i-a-i-ar

(There's another solo at the end, over these chords)
E D A E
E D A E

            
            
Suggest correction
Creating personal tab
Creating personal tab
You can edit any tab online and save it as your Personal.

You can edit, replace or remove any tab part or add personal notes – all changes will be seen only by you.

Personal tabs can be accessed anytime from any device, even offline.
Learn more »
comments
print report bad tab
5 comments total. Showing first comments.
0 reply
downtownd 10 Jan 23, 2005 07:00 PM

acurate, but the solo would be nice to have...

0 reply
Amped 80 Dec 01, 2006 10:50 AM

well the comments say that there are 2 comments on this song but there was only one so i thought i'd make up the difference. your welcome

0 reply
Amped 80 Dec 01, 2006 10:52 AM

DAMNIT now it says there's 3 but there's only 2 DAMNIT now there's only gonna be 3 but it'll say four....SH*T FVCK

guest
Wanna post a correction for this tab? Suggest correction