Oops, an error
Loading. Please wait.

Banditos bass

version 3
version 3

Whole song

Interactive

1,074 views 1 this week
no commentswrite comment
1 2 3 4 5
3 more votes to show rating
add to favorites
×
Save as Personal and add changes to this tab that will be seen only by you. Learn more ›
×
You can save this tab as Personal to edit and correct it or add notes. All changes will be seen only by you. Learn more »
launch autoscroll
font size
0
reset
guitar tuner
backing track
0:00
0:00
edit
Autoscroll
slow
fast
+/-
esc
set tempo
stop
-------------------------------------------------------------------------------
			     BANDITOS - The Refreshments
-------------------------------------------------------------------------------

Tabbed By : Blackie
e-mail: blackielicious@gmail.com

Tuning: 440 (E,A,D,G)

The Ending of the song is pretty muddy and hard to figure out all the flair
in it but this is the riffing as I could figure it out all suggestions welcome.

Verse
    E               D                A              E                      
G|--------------------------------------------------------------------|
D|--------------------------------------------------------------------|
A|------------------55555555555555550000000000000000------------------|
E|--0000000000000000--------------------------------0000000000000000--|

Pre-Chorus
    E      A     E     B                     
G|-------------------------------------|
D|-------------------------------------|
A|---------0-00-0------2-222222222222--|
E|--0-00-0-------0-00-0----------------|

Chorus
    A       B       E       C#      A       B       E   A E A E G#A A
G|---------------------------------------------------------------------|
D|---------------------------------------------------------------------|
A|--0000000022222222--------444444440000000022222222----0---0-----0-0--|
E|------------------00000000------------------------0-----0---0-4------|

    A       B       E       C#      A       B                 
G|---------------------------------------------|
D|---------------------------------------------|
A|--0000000022222222--------444444440-------2--|
E|------------------00000000-------------------|

Ending/Outro
    E               D                A              E                      
G|--------------------------------------------------------------------|
D|--------------------------------------------------------------------|
A|------------------55555555555555550000000000000000------------------|
E|--0000000000000000--------------------------------0000000000000000--|

    E               D                A              E                      
G|--------------------------------------------------------------------|
D|--------------------------------------------------------------------|
A|------------------55555555555555550000000000000000------------------|
E|--0000000000000000--------------------------------0000000000000000--|

    E               D                A              E                      
G|-------------------------------------------------------------------------|
D|-------------------------------------------------------------------------|
A|------------------555555555555555500000000000000007-5--------------------|
E|--0000000000000000------------------------------------7-5-3--5-3-2-0--0--|

| /  slide up
| \  slide down
| h  hammer-on
| p  pull-off
| ~  vibrato
| +  harmonic
| x  Mute note
===============================================================================

            
            
Suggest correction
Creating personal tab
Creating personal tab
You can edit any tab online and save it as your Personal.

You can edit, replace or remove any tab part or add personal notes – all changes will be seen only by you.

Personal tabs can be accessed anytime from any device, even offline.
Learn more »
Give kudos to tab author, rate the tab!
1 2 3 4 5
comments
print report bad tab
guest
You may want to rate the tab now too:
select rating
Wanna post a correction for this tab? Suggest correction