Oops, an error
Loading. Please wait.

Hey Now tab

304 views 96 this week
no commentswrite comment
1 2 3 4 5
3 more votes to show rating
add to favorites
×
Save as Personal and add changes to this tab that will be seen only by you. Learn more ›
×
You can save this tab as Personal to edit and correct it or add notes. All changes will be seen only by you. Learn more »
launch autoscroll
font size
0
reset
how to read this tab
guitar tuner
edit
Autoscroll
slow
fast
+/-
esc
set tempo
stop
Artist: The Regrettes
Song: Hey Now
Album: Feel Your Feelings Fool!

[Intro]
(Gtr 1)
e|-8---------|--8---8-------|--8--8--8--------|--8---------|
B|-8---------|--8---8-------|--8--8--8--------|--8---------|
G|-9---------|--9---9-------|--9--9--9--------|--9---------|
D|-10--------|--10--10------|--10-10-10-------|--10--------|
A|-10--------|--10--10------|--10-10-10-------|--10--------|
E|-8---------|--8---8-------|--8--8--8--------|--8---------|

e|-8---8-------|--8---8-------|--8---------|-8--8--8--8--8--8--8--8---|
B|-8---8-------|--8---8-------|--8---------|-8--8--8--8--8--8--8--8---|
G|-9---9-------|--9---9-------|--9---------|-9--9--9--9--9--9--9--9---|
D|-10--10------|--10--10------|--10--------|-10-10-10-10-10-10-10-10--|
A|-10--10------|--10--10------|--10--------|-10-10-10-10-10-10-10-10--|
E|-8---8-------|--8---8-------|--8---------|-8--8--8--8--8--8--8--8---|

(Gtr 1)
e|-8---8--8---8--8--8--|-8---8--8---8--8--8--|
B|-8---8--8---8--8--8--|-8---8--8---8--8--8--|
G|-9---9--9---9--9--9--|-9---9--9---9--9--9--|
D|-10--10-10--10-10-10-|-10--10-10--10-10-10-|
A|-10--10-10--10-10-10-|-10--10-10--10-10-10-|
E|-8---8--8---8--8--8--|-8---8--8---8--8--8--|\

(Gtr 2)                                        (2x)
e|---------------------|---------------------|/
B|--------8------------|--------8------------|
G|------------9-----9--|------------9-----9--|
D|-10--10--------10----|-10--10--------10----|
A|-10------------------|-10------------------|
E|-8-------------------|-8-------------------|

[Verse 1] (2x)
(Gtr 1)
e|-8--------|--------|--------|---------|
B|-8--------|--------|--------|---------|
G|-9--------|--------|--------|---------|
D|-10-------|--------|--------|---------|
A|-10-------|--------|--------|---------|
E|-8--------|--------|--------|---------|

(Gtr 1)
e|-8---8--8---8--8--8--|-8---8--8---8--8--8--|-3--3-3--3-3-3-|-1--1-1--1-1-1-|
B|-8---8--8---8--8--8--|-8---8--8---8--8--8--|-3--3-3--3-3-3-|-1--1-1--1-1-1-|
G|-9---9--9---9--9--9--|-9---9--9---9--9--9--|-4--4-4--4-4-4-|-2--2-2--2-2-2-|
D|-10--10-10--10-10-10-|-10--10-10--10-10-10-|-5--5-5--5-5-5-|-3--3-3--3-3-3-|
A|-10--10-10--10-10-10-|-10--10-10--10-10-10-|-5--5-5--5-5-5-|-3--3-3--3-3-3-|
E|-8---8--8---8--8--8--|-8---8--8---8--8--8--|-3--3-3--3-3-3-|-1--1-1--1-1-1-|

(Gtr 2)
e|---------------------|---------------------|---------------|---------------|
B|-----------8---------|-----------8---------|--------3------|--------1------|
G|---------------9-----|---------------9-----|-----------4---|-----------2---|
D|-10------------------|-10------------------|-5-------------|-3-------------|
A|---------------------|---------------------|---------------|---------------|
E|---------------------|---------------------|---------------|---------------|

(Gtr 1)
e|-8---8--8---8--8--8--|-8---8--8---8--8--8--|-3--3-3--3-3-3-|-1--1-1--1-1-1-|
B|-8---8--8---8--8--8--|-8---8--8---8--8--8--|-3--3-3--3-3-3-|-1--1-1--1-1-1-|
G|-9---9--9---9--9--9--|-9---9--9---9--9--9--|-4--4-4--4-4-4-|-2--2-2--2-2-2-|
D|-10--10-10--10-10-10-|-10--10-10--10-10-10-|-5--5-5--5-5-5-|-3--3-3--3-3-3-|
A|-10--10-10--10-10-10-|-10--10-10--10-10-10-|-5--5-5--5-5-5-|-3--3-3--3-3-3-|
E|-8---8--8---8--8--8--|-8---8--8---8--8--8--|-3--3-3--3-3-3-|-1--1-1--1-1-1-|

(Gtr 2)
e|---------------------|---------------------|---------------|---------------|
B|-----------8---------|-----------8---------|--------3------|--------1------|
G|---------------9-----|---------------9-----|-----------4---|-----------2---|
D|-10------------------|-10------------------|-5-------------|-3-------------|
A|---------------------|---------------------|---------------|---------------|
E|---------------------|---------------------|---------------|---------------|

[Interlude]
(Gtr 1)
e|-8---8--8---8--8--8--|-8---8--8--8---7--|-5--5-5--5--5-5-|-5--5-5-5---7--|
B|-8---8--8---8--8--8--|-8---8--8--8---7--|-5--5-5--5--5-5-|-5--5-5-5---7--|
G|-9---9--9---9--9--9--|-9---9--9--9---8--|-5--5-5--5--5-5-|-5--5-5-5---8--|
D|-10--10-10--10-10-10-|-10--10-10-10--9--|-7--7-7--7--7-7-|-7--7-7-7---9--|
A|-10--10-10--10-10-10-|-10--10-10-10--9--|-7--7-7--7--7-7-|-7--7-7-7---9--|
E|-8---8--8---8--8--8--|-8---8--8--8---7--|-5--5-5--5--5-5-|-5--5-5-5---7--|

(Gtr 2)
e|---------------------|-8----------------|--------12------|-17------------|
B|-----------8---------|-----8---------8--|----13-----13---|----17--13-----|
G|-----9---------9-----|-----------9------|-14-------------|-----------14--|
D|-10------------------|------------------|----------------|---------------|
A|---------------------|------------------|----------------|---------------|
E|---------------------|------------------|----------------|---------------|

(Gtr 1)
e|-8---8--8---8--8--8--|-8---8--8--8---7--|-5-----3----|
B|-8---8--8---8--8--8--|-8---8--8--8---7--|-5-----3----|
G|-9---9--9---9--9--9--|-9---9--9--9---8--|-5-----4----|
D|-10--10-10--10-10-10-|-10--10-10-10--9--|-7-----5----|
A|-10--10-10--10-10-10-|-10--10-10-10--9--|-7-----5----|
E|-8---8--8---8--8--8--|-8---8--8--8---7--|-5-----3----|

(Gtr 2)
e|---------------------|-8----------------|------------|
B|-----------8---------|-----8---------8--|-10----8----|
G|-----9---------9-----|-----------9------|------------|
D|-10------------------|------------------|------------|
A|---------------------|------------------|------------|
E|---------------------|------------------|------------|

(Gtr 1)
e|-1--1-1--1-1-1-|-1--1-1--1-1-1-|-3--3-3--3-3-3-|-3--3-3--3-3-3-|
B|-1--1-1--1-1-1-|-1--1-1--1-1-1-|-3--3-3--3-3-3-|-3--3-3--3-3-3-|
G|-2--2-2--2-2-2-|-2--2-2--2-2-2-|-4--4-4--4-4-4-|-4--4-4--4-4-4-|
D|-3--3-3--3-3-3-|-3--3-3--3-3-3-|-5--5-5--5-5-5-|-5--5-5--5-5-5-|
A|-3--3-3--3-3-3-|-3--3-3--3-3-3-|-5--5-5--5-5-5-|-5--5-5--5-5-5-|
E|-1--1-1--1-1-1-|-1--1-1--1-1-1-|-3--3-3--3-3-3-|-3--3-3--3-3-3-|

(Gtr 2)
e|--------8------|-13-8-------8--|--------10-----|-15-10-----10--|
B|----10-----10--|--------10-----|----12-----12--|--------12-----|
G|-10------------|---------------|-12------------|---------------|
D|---------------|---------------|---------------|---------------|
A|---------------|---------------|---------------|---------------|
E|---------------|---------------|---------------|---------------|

[Chorus] (2x)
(Gtr 1)&2)
e|-8---8--8---8--8--8--|-3--3-3--3-3-3-|-8---8--8---8--8--8--|-5--5-5--5-5-5-|
B|-8---8--8---8--8--8--|-3--3-3--3-3-3-|-8---8--8---8--8--8--|-5--5-5--5-5-5-|
G|-9---9--9---9--9--9--|-4--4-4--4-4-4-|-9---9--9---9--9--9--|-5--5-5--5-5-5-|
D|-10--10-10--10-10-10-|-5--5-5--5-5-5-|-10--10-10--10-10-10-|-7--7-7--7-7-7-|
A|-10--10-10--10-10-10-|-5--5-5--5-5-5-|-10--10-10--10-10-10-|-7--7-7--7-7-7-|
E|-8---8--8---8--8--8--|-3--3-3--3-3-3-|-8---8--8---8--8--8--|-5--5-5--5-5-5-|

e|-8---8--8---8--8--8--|-3--3-3--3-3-3-|-8---8--8--3-3-3--|-8---8--8---8--8--8--|
B|-8---8--8---8--8--8--|-3--3-3--3-3-3-|-8---8--8--3-3-3--|-8---8--8---8--8--8--|
G|-9---9--9---9--9--9--|-4--4-4--4-4-4-|-9---9--9--4-4-4--|-9---9--9---9--9--9--|
D|-10--10-10--10-10-10-|-5--5-5--5-5-5-|-10--10-10-5-5-5--|-10--10-10--10-10-10-|
A|-10--10-10--10-10-10-|-5--5-5--5-5-5-|-10--10-10-5-5-5--|-10--10-10--10-10-10-|
E|-8---8--8---8--8--8--|-3--3-3--3-3-3-|-8---8--8--3-3-3--|-8---8--8---8--8--8--|

[Verse 2] 
(Gtr 1)
e|-8--------|--------|--------|---------|
B|-8--------|--------|--------|---------|
G|-9--------|--------|--------|---------|
D|-10-------|--------|--------|---------|
A|-10-------|--------|--------|---------|
E|-8--------|--------|--------|---------|

(Gtr 1)
e|-8---8--8---8--8--8--|-8---8--8---8--8--8--|-3--3-3--3-3-3-|-1--1-1--1-1-1-|
B|-8---8--8---8--8--8--|-8---8--8---8--8--8--|-3--3-3--3-3-3-|-1--1-1--1-1-1-|
G|-9---9--9---9--9--9--|-9---9--9---9--9--9--|-4--4-4--4-4-4-|-2--2-2--2-2-2-|
D|-10--10-10--10-10-10-|-10--10-10--10-10-10-|-5--5-5--5-5-5-|-3--3-3--3-3-3-|
A|-10--10-10--10-10-10-|-10--10-10--10-10-10-|-5--5-5--5-5-5-|-3--3-3--3-3-3-|
E|-8---8--8---8--8--8--|-8---8--8---8--8--8--|-3--3-3--3-3-3-|-1--1-1--1-1-1-|

(Gtr 2)
e|---------------------|---------------------|---------------|---------------|
B|-----------8---------|-----------8---------|--------3------|--------1------|
G|---------------9-----|---------------9-----|-----------4---|-----------2---|
D|-10------------------|-10------------------|-5-------------|-3-------------|
A|---------------------|---------------------|---------------|---------------|
E|---------------------|---------------------|---------------|---------------|

(Gtr 1)
e|-8---8--8---8--8--8--|-8---8--8---8--8--8--|-3--3-3--3-3-3-|-1--1-1--1-1-1-|
B|-8---8--8---8--8--8--|-8---8--8---8--8--8--|-3--3-3--3-3-3-|-1--1-1--1-1-1-|
G|-9---9--9---9--9--9--|-9---9--9---9--9--9--|-4--4-4--4-4-4-|-2--2-2--2-2-2-|
D|-10--10-10--10-10-10-|-10--10-10--10-10-10-|-5--5-5--5-5-5-|-3--3-3--3-3-3-|
A|-10--10-10--10-10-10-|-10--10-10--10-10-10-|-5--5-5--5-5-5-|-3--3-3--3-3-3-|
E|-8---8--8---8--8--8--|-8---8--8---8--8--8--|-3--3-3--3-3-3-|-1--1-1--1-1-1-|

(Gtr 2)
e|---------------------|---------------------|---------------|---------------|
B|-----------8---------|-----------8---------|--------3------|--------1------|
G|---------------9-----|---------------9-----|-----------4---|-----------2---|
D|-10------------------|-10------------------|-5-------------|-3-------------|
A|---------------------|---------------------|---------------|---------------|
E|---------------------|---------------------|---------------|---------------|

[Interlude]
(Gtr 1)
e|-8---8--8---8--8--8--|-8---8--8--8---7--|-5--5-5--5--5-5-|-5--5-5-5---7--|
B|-8---8--8---8--8--8--|-8---8--8--8---7--|-5--5-5--5--5-5-|-5--5-5-5---7--|
G|-9---9--9---9--9--9--|-9---9--9--9---8--|-5--5-5--5--5-5-|-5--5-5-5---8--|
D|-10--10-10--10-10-10-|-10--10-10-10--9--|-7--7-7--7--7-7-|-7--7-7-7---9--|
A|-10--10-10--10-10-10-|-10--10-10-10--9--|-7--7-7--7--7-7-|-7--7-7-7---9--|
E|-8---8--8---8--8--8--|-8---8--8--8---7--|-5--5-5--5--5-5-|-5--5-5-5---7--|

(Gtr 2)
e|---------------------|-8----------------|--------12------|-17------------|
B|-----------8---------|-----8---------8--|----13-----13---|----17--13-----|
G|-----9---------9-----|-----------9------|-14-------------|-----------14--|
D|-10------------------|------------------|----------------|---------------|
A|---------------------|------------------|----------------|---------------|
E|---------------------|------------------|----------------|---------------|

(Gtr 1)
e|-8---8--8---8--8--8--|-8---8--8--8---7--|-5-----3----|
B|-8---8--8---8--8--8--|-8---8--8--8---7--|-5-----3----|
G|-9---9--9---9--9--9--|-9---9--9--9---8--|-5-----4----|
D|-10--10-10--10-10-10-|-10--10-10-10--9--|-7-----5----|
A|-10--10-10--10-10-10-|-10--10-10-10--9--|-7-----5----|
E|-8---8--8---8--8--8--|-8---8--8--8---7--|-5-----3----|

(Gtr 2)
e|---------------------|-8----------------|------------|
B|-----------8---------|-----8---------8--|-10----8----|
G|-----9---------9-----|-----------9------|------------|
D|-10------------------|------------------|------------|
A|---------------------|------------------|------------|
E|---------------------|------------------|------------|

(Gtr 1)
e|-1--1-1--1-1-1-|-1--1-1--1-1-1-|-3--3-3--3-3-3-|-3--3-3--3-3-3-|
B|-1--1-1--1-1-1-|-1--1-1--1-1-1-|-3--3-3--3-3-3-|-3--3-3--3-3-3-|
G|-2--2-2--2-2-2-|-2--2-2--2-2-2-|-4--4-4--4-4-4-|-4--4-4--4-4-4-|
D|-3--3-3--3-3-3-|-3--3-3--3-3-3-|-5--5-5--5-5-5-|-5--5-5--5-5-5-|
A|-3--3-3--3-3-3-|-3--3-3--3-3-3-|-5--5-5--5-5-5-|-5--5-5--5-5-5-|
E|-1--1-1--1-1-1-|-1--1-1--1-1-1-|-3--3-3--3-3-3-|-3--3-3--3-3-3-|

(Gtr 2)
e|--------8------|-13-8-------8--|--------10-----|-15-10-----10--|
B|----10-----10--|--------10-----|----12-----12--|--------12-----|
G|-10------------|---------------|-12------------|---------------|
D|---------------|---------------|---------------|---------------|
A|---------------|---------------|---------------|---------------|
E|---------------|---------------|---------------|---------------|

[Chorus] (2x)
(Gtr 1)&2)
e|-8---8--8---8--8--8--|-3--3-3--3-3-3-|-8---8--8---8--8--8--|-5--5-5--5-5-5-|
B|-8---8--8---8--8--8--|-3--3-3--3-3-3-|-8---8--8---8--8--8--|-5--5-5--5-5-5-|
G|-9---9--9---9--9--9--|-4--4-4--4-4-4-|-9---9--9---9--9--9--|-5--5-5--5-5-5-|
D|-10--10-10--10-10-10-|-5--5-5--5-5-5-|-10--10-10--10-10-10-|-7--7-7--7-7-7-|
A|-10--10-10--10-10-10-|-5--5-5--5-5-5-|-10--10-10--10-10-10-|-7--7-7--7-7-7-|
E|-8---8--8---8--8--8--|-3--3-3--3-3-3-|-8---8--8---8--8--8--|-5--5-5--5-5-5-|

e|-8---8--8---8--8--8--|-3--3-3--3-3-3-|-8---8--8--3-3-3--|-8---8--8---8--8--8--|
B|-8---8--8---8--8--8--|-3--3-3--3-3-3-|-8---8--8--3-3-3--|-8---8--8---8--8--8--|
G|-9---9--9---9--9--9--|-4--4-4--4-4-4-|-9---9--9--4-4-4--|-9---9--9---9--9--9--|
D|-10--10-10--10-10-10-|-5--5-5--5-5-5-|-10--10-10-5-5-5--|-10--10-10--10-10-10-|
A|-10--10-10--10-10-10-|-5--5-5--5-5-5-|-10--10-10-5-5-5--|-10--10-10--10-10-10-|
E|-8---8--8---8--8--8--|-3--3-3--3-3-3-|-8---8--8--3-3-3--|-8---8--8---8--8--8--|

[Verse 3]
(Gtr 1)
e|-----8---8---|-----8--8--8---|-----8---8---|-----8--8--8---|
B|-----8---8---|-----8--8--8---|-----8---8---|-----8--8--8---|
G|-----9---9---|-----9--9--9---|-----9---9---|-----9--9--9---|
D|-----10--10--|-----10-10-10--|-----10--10--|-----10-10-10--|
A|-----10--10--|-----10-10-10--|-----10--10--|-----10-10-10--|
E|-----8---8---|-----8--8--8---|-----8---8---|-----8--8--8---|

(Gtr 1)
e|-----8---8---|-----8--8--8---|-----8---8---|---8--8--8--8--8--8--|
B|-----8---8---|-----8--8--8---|-----8---8---|---8--8--8--8--8--8--|
G|-----9---9---|-----9--9--9---|-----9---9---|---9--9--9--9--9--9--|
D|-----10--10--|-----10-10-10--|-----10--10--|---10-10-10-10-10-10-|
A|-----10--10--|-----10-10-10--|-----10--10--|---10-10-10-10-10-10-|
E|-----8---8---|-----8--8--8---|-----8---8---|---8--8--8--8--8--8--|

(Gtr 1)
e|-8~----------|-------------|-3~---------|-1~---------|
B|-8~----------|-------------|-3~---------|-1~---------|
G|-9~----------|-------------|-4~---------|-2~---------|
D|-10~---------|-------------|-5~---------|-3~---------|
A|-10~---------|-------------|-5~---------|-3~---------|
E|-8~----------|-------------|-3~---------|-1~---------|

(Gtr 2)
e|-------------|-------------|------------|------------|
B|-------8-----|-------8-----|------3-----|------1-----|
G|----------9--|----------9--|---------4--|---------2--|
D|-10----------|-10----------|-5----------|-3----------|
A|-------------|-------------|------------|------------|
E|-------------|-------------|------------|------------|

(Gtr 1)
e|-8~----------|-------------|-3~---------|-1~---------|
B|-8~----------|-------------|-3~---------|-1~---------|
G|-9~----------|-------------|-4~---------|-2~---------|
D|-10~---------|-------------|-5~---------|-3~---------|
A|-10~---------|-------------|-5~---------|-3~---------|
E|-8~----------|-------------|-3~---------|-1~---------|

(Gtr 2)
e|-------------|-------------|------------|------------|
B|-------8-----|-------8-----|------3-----|------1-----|
G|----------9--|----------9--|---------4--|---------2--|
D|-10----------|-10----------|-5----------|-3----------|
A|-------------|-------------|------------|------------|
E|-------------|-------------|------------|------------|

[Interlude 2]
(Gtr 1)
e|-8---8--8---8--8--8--|-8---8--8---8--7--|-5--5-5--5-5-5-|-5--5-5--5-7--|
B|-8---8--8---8--8--8--|-8---8--8---8--7--|-5--5-5--5-5-5-|-5--5-5--5-7--|
G|-9---9--9---9--9--9--|-9---9--9---9--8--|-5--5-5--5-5-5-|-5--5-5--5-8--|
D|-10--10-10--10-10-10-|-10--10-10--10-9--|-7--7-7--7-7-7-|-7--7-7--7-9--|
A|-10--10-10--10-10-10-|-10--10-10--10-9--|-7--7-7--7-7-7-|-7--7-7--7-9--|
E|-8---8--8---8--8--8--|-8---8--8---8--7--|-5--5-5--5-5-5-|-5--5-5--5-7--|

(Gtr 2)
e|-8~------------------|------------------|-5~------------|--------------|
B|-8~------------------|------------------|-5~------------|--------------|
G|-9~------------------|------------------|-5~------------|--------------|
D|-10~-----------------|------------------|-7~------------|--------------|
A|-10~-----------------|------------------|-7~------------|--------------|
E|-8~------------------|------------------|-5~------------|--------------|

(Gtr 1)
e|-8---8--8---8--8--8--|-8---8--8---8--7--|-5--5-5--5-5-5-|-5--5-5--5-7--|
B|-8---8--8---8--8--8--|-8---8--8---8--7--|-5--5-5--5-5-5-|-5--5-5--5-7--|
G|-9---9--9---9--9--9--|-9---9--9---9--8--|-5--5-5--5-5-5-|-5--5-5--5-8--|
D|-10--10-10--10-10-10-|-10--10-10--10-9--|-7--7-7--7-7-7-|-7--7-7--7-9--|
A|-10--10-10--10-10-10-|-10--10-10--10-9--|-7--7-7--7-7-7-|-7--7-7--7-9--|
E|-8---8--8---8--8--8--|-8---8--8---8--7--|-5--5-5--5-5-5-|-5--5-5--5-7--|

(Gtr 2)
e|-8~------------------|------------------|-5~------------|--------------|
B|-8~------------------|------------------|-5~------------|--------------|
G|-9~------------------|------------------|-5~------------|--------------|
D|-10~-----------------|------------------|-7~------------|--------------|
A|-10~-----------------|------------------|-7~------------|--------------|
E|-8~------------------|------------------|-5~------------|--------------|

(Gtr 1)
e|-5----3----|-1~-------------|---------------|-3~--------------|-----------------|
B|-5----3----|-1~-------------|---------------|-3~--------------|-----------------|
G|-5----4----|-2~-------------|---------------|-4~--------------|-----------------|
D|-7----5----|-3~-------------|---------------|-5~--------------|-----------------|
A|-7----5----|-3~-------------|---------------|-5~--------------|-----------------|
E|-5----3----|-1~-------------|---------------|-3~--------------|-----------------|

(Gtr 2)
e|-5----3----|---------8------|-13--8------8--|---------10------|-15--10------10--|
B|-5----3----|-----10-----10--|--------10-----|-----12------12--|---------12------|
G|-5----4----|-10-------------|---------------|-12--------------|-----------------|
D|-7----5----|----------------|---------------|-----------------|-----------------|
A|-7----5----|----------------|---------------|-----------------|-----------------|
E|-5----3----|----------------|---------------|-----------------|-----------------|

[Chorus] (3x)
(Gtr 1)&2)
e|-8---8--8---8--8--8--|-3--3-3--3-3-3-|-8---8--8---8--8--8--|-5--5-5--5-5-5-|
B|-8---8--8---8--8--8--|-3--3-3--3-3-3-|-8---8--8---8--8--8--|-5--5-5--5-5-5-|
G|-9---9--9---9--9--9--|-4--4-4--4-4-4-|-9---9--9---9--9--9--|-5--5-5--5-5-5-|
D|-10--10-10--10-10-10-|-5--5-5--5-5-5-|-10--10-10--10-10-10-|-7--7-7--7-7-7-|
A|-10--10-10--10-10-10-|-5--5-5--5-5-5-|-10--10-10--10-10-10-|-7--7-7--7-7-7-|
E|-8---8--8---8--8--8--|-3--3-3--3-3-3-|-8---8--8---8--8--8--|-5--5-5--5-5-5-|

e|-8---8--8---8--8--8--|-3--3-3--3-3-3-|-8---8--8--3-3-3--|-8---8--8---8--8--8--|
B|-8---8--8---8--8--8--|-3--3-3--3-3-3-|-8---8--8--3-3-3--|-8---8--8---8--8--8--|
G|-9---9--9---9--9--9--|-4--4-4--4-4-4-|-9---9--9--4-4-4--|-9---9--9---9--9--9--|
D|-10--10-10--10-10-10-|-5--5-5--5-5-5-|-10--10-10-5-5-5--|-10--10-10--10-10-10-|
A|-10--10-10--10-10-10-|-5--5-5--5-5-5-|-10--10-10-5-5-5--|-10--10-10--10-10-10-|
E|-8---8--8---8--8--8--|-3--3-3--3-3-3-|-8---8--8--3-3-3--|-8---8--8---8--8--8--|

[Ending]
e|-8---8--8--3-3-3--|-8~--------|---------|---------|---------|
B|-8---8--8--3-3-3--|-8~--------|---------|---------|---------|
G|-9---9--9--4-4-4--|-9~--------|---------|---------|---------|
D|-10--10-10-5-5-5--|-10~-------|---------|---------|---------|
A|-10--10-10-5-5-5--|-10~-------|---------|---------|---------|
E|-8---8--8--3-3-3--|-8~--------|---------|---------|---------|


************************************

| ~  Vibrato

************************************
Suggest correction
Creating personal tab
Creating personal tab
You can edit any tab online and save it as your Personal.

You can edit, replace or remove any tab part or add personal notes – all changes will be seen only by you.

Personal tabs can be accessed anytime from any device, even offline.
Learn more »
Give kudos to tab author, rate the tab!
1 2 3 4 5
comments
print report bad tab
guest
You may want to rate the tab now too:
select rating
Wanna post a correction for this tab? Suggest correction