Oops, an error
Loading. Please wait.

Hidden Track chords

115 views 18 this week
no commentswrite comment
1 2 3 4 5
3 more votes to show rating
add to favorites
×
Save as Personal and add changes to this tab that will be seen only by you. Learn more ›
×
You can save this tab as Personal to edit and correct it or add notes. All changes will be seen only by you. Learn more »
launch autoscroll
font size
0
reset
transpose
0
reset
display chords
guitar tuner
edit
Autoscroll
slow
fast
+/-
esc
set tempo
stop
Strumming
There is no strumming pattern for this song yet. and get +5 IQ
This song doesn't have an official title. I named it 'Hidden Track' because it's at the end of their
album "Feel Your Feelings Fool". Plays after the song 'You Won't Do' at 2:33. Enjoy!


[Intro](Do this picking pattern throughout the whole song)
   C        Am       Em       G
e|-------------------------------------|
B|-------------------------------------|
G|----5--5-----2--2--------------------|
D|----5--5-----2--2-----2--2-----5--5--|
A|-3--------0-----------2--2-----5--5--|
E|-------------------0--------3--------|

   C        Am       C        G
e|-------------------------------------|
B|-------------------------------------|
G|----5--5-----2--2-----5--5-----------|
D|----5--5-----2--2-----5--5-----5--5--|
A|-3--------0--------3-----------5--5--|
E|----------------------------3--------|


[Verse 1]
    C
I'm in my room, clothes on the floor
  Am                         G       C
I really wish that you would open my door

My bed is cold and my sheets are new
      Am                    G      C
Maybe it would be warmer if it had you

I want to cry rivers, and I wanna scream storms
        Am                        G          C
But the weather's too nice and my body's too torn

I wanna throw planets and I wanna drink the sea
       Am                           G           C
But my head is too small and dreams too big for me


[Chorus 1]
Am  G        Am  G        Am  G
ooo bum bum, ooo bum bum, ooo bum bum,
Am      G         C
ooooooo bum buuum bum
        e|---------------|
        B|---------------|
        G|----------5-5--|
        D|----------5-5--|
        A|----0-2-3------|
        E|--3------------|
   Am       Em       G
e|----------------------------|
B|----------------------------|
G|----2--2--------------------|
D|----2--2-----2--2-----5--5--|
A|-0-----------2--2-----5--5--|
E|----------0--------3--------|
   C        Am       D        G
e|-------------------------------------|
B|-------------------------------------|
G|----5--5-----2--2-----7--7-----------|
D|----5--5-----2--2-----7--7-----5--5--|
A|-3--------0--------5-----------5--5--|
E|----------------------------3--------|


[Verse 2]
    C
You tell me I’m young and that I have time to grow
  Am                                G           C
I say I’m not patient, they say I’m cold as the snow

My heart's insecure and my mind is a bitch
      Am                      G            C
and I can’t cast a spell even though I’m a witch

I wanna rip the mountains and I wanna eat the clouds
        Am                     G               C
But the sun is too hot and the world's full of clowns

I wanna breathe flowers and only hear the sand
          Am                     G      C
But I’m a little caught up in my fantasyland


[Chorus 2]
Am  G        Am  G        Am  G
ooo bum bum, ooo bum bum, ooo bum bum,
C   G        Am  G        Am  G
ooo bum bum, ooo bum bum, ooo bum bum,
Am  G        Am      C   G     C
ooo bum bum, ooooooo bum buuum bum
                     e|-------------|
                     B|-------------|
                     G|-------------|
                     D|-------------|
                     A|----0-2-3----|
                     E|--3----------|


            
            
Suggest correction
Creating personal tab
Creating personal tab
You can edit any tab online and save it as your Personal.

You can edit, replace or remove any tab part or add personal notes – all changes will be seen only by you.

Personal tabs can be accessed anytime from any device, even offline.
Learn more »
Give kudos to tab author, rate the tab!
1 2 3 4 5
comments
print report bad tab
guest
You may want to rate the tab now too:
select rating
Wanna post a correction for this tab? Suggest correction