Oops, an error
Loading. Please wait.

Seashore chords

version 2
version 2

Whole song

  • The lead guitar (Genessa) does the same chords as ... Show more
118 views 99 this week
no commentswrite comment
1 2 3 4 5
3 more votes to show rating
add to favorites
×
Save as Personal and add changes to this tab that will be seen only by you. Learn more ›
×
You can save this tab as Personal to edit and correct it or add notes. All changes will be seen only by you. Learn more »
launch autoscroll
font size
0
reset
transpose
0
reset
display chords
guitar tuner
edit
Autoscroll
slow
fast
+/-
esc
set tempo
stop
About this tab version
The lead guitar (Genessa) does the same chords as the rhythm guitar (Lydia) but in the shape of power chords, this version is meant for 1 guitar, but if you wanna play it with a band just use power chords for the lead guitar. (D5, C5, G5). Was this info helpful? Yes No
Strumming
There is no strumming pattern for this song yet. and get +5 IQ
E|----------------|
B|----------------|
G|----------------|
D|----------------|
A|-----7--5--2--3-|
E|3--7------------| (2X) Intro Riff

E|------------|
B|------------|
G|------------|
D|------------|
A|-----7--5---|
E|3--7--------| (11x) Verse Riff (Listen to the song for timing)


[Verse]

(Verse Riff)
You're talkin' to me like a child
Hey I've got news, I'm not a little girl
And no I won't give you a little twirl
You're talkin' to me like I'm sad
Hey I've got news, I'm not doin' too bad
Even though sometimes I might get real mad

[Chorus]
                            G
You're talkin' to me like a child
                    C
But my words are growin' stronger
                        G
And my legs keep gettin' longer

D              C                  D               C
I'm like nobody else, so you can just go fuck yourself
D                                    D                  C
I do a lot of stupid stuff but don't act like you're so tough

[Verse]

E|----------------|
B|----------------|
G|----------------|
D|----------------|
A|-----7--5--2--3-|
E|3--7------------| (2X) Intro Riff

E|------------|
B|------------|
G|------------|
D|------------|
A|-----7--5---|
E|3--7--------| (11x) Verse Riff (Listen to the song for timing)

(Verse Riff)
You're talkin' to me like I'm dumb
Well I've got news, I've got a lot to say
There's nothing you can do to take that away
You're talkin' to me like I'm hurt
At least I'm not six feet in the dirt
And I'll still kick your ass even in my skirt

[Chorus]
                            G
You're talkin' to me like a child
                    C
But I'm not a helpless baby
                      G
Not waitin' on you to come save me

D              C                  D               C
I'm like nobody else, so you can just go fuck yourself
D                                    D                  C
I do a lot of stupid stuff but don't act like you're so tough
C
Fire fire with fire and you'll get burned
D
Hey I think right about now is your turn
                         C
Earplugs won't save you anymore
                  D                C
They'll leave you washed up on the seashore

[Pre-Solo]

E|----------------|
B|----------------|
G|----------------|
D|----------------|
A|-----7--5--2--3-|
E|3--7------------| (1x)

[Solo]

E|----------------------------------------------------------|
B|----------------------------------------------------------|
G|----------------------------------------------------------|
D|---------9~--10-7-9~-7h9-7---------------9~--10-7-9~-7h9-7|
A|7~--9-10-------------------10-9-7~--9-10------------------|
E|----------------------------------------------------------|

E|---------------------------------------------------------------|
B|---------------------------------------------------------------|
G|7~~--9-----12-12-11-11-9-11-----9~--8~~--8/11--11~--11b13r11-9~|
D|-------9~-------------------9-9--------------------------------|
A|---------------------------------------------------------------|
E|---------------------------------------------------------------|

E|-----------------------------------------|
B|12~~-----12----12--12-----12----12----15~|
G|-----9-------9-----14b16--14b16-14b16----|
D|-----------------------------------------|
A|-----------------------------------------|
E|-----------------------------------------|

[Verse]

E|----------------|
B|----------------|
G|----------------|
D|----------------|
A|-----7--5--2--3-|
E|3--7------------| (2X) Intro Riff

E|------------|
B|------------|
G|------------|
D|------------|
A|-----7--5---|
E|3--7--------|(5x) Verse Riff (Listen to the song for timing)

(Verse Riff)
You're talkin' to me like a bitch
Do you ever hear the way that you speak?
Don't have to be so mean just 'cause you're weak

[Chorus]
D              C                  D               C
I'm like nobody else, so you can just go fuck yourself
D                                    D                  C
I do a lot of stupid stuff but don't act like you're so tough
C
Fire fire with fire and you'll get burned
D
Hey I think right about now is your turn
                         C
Earplugs won't save you anymore
                  D                C
They'll leave you washed up on the seashore

  Ending Riff
E|----------------|
B|----------------|
G|----------------|
D|----------------|
A|-----7--5--2--3-|
E|3--7------------| (1x)
 

************************************

| h  Hammer-on
| ~  Vibrato
| r  Release
| b  Bend
| /  Slide up
 

************************************
Suggest correction
Creating personal tab
Creating personal tab
You can edit any tab online and save it as your Personal.

You can edit, replace or remove any tab part or add personal notes – all changes will be seen only by you.

Personal tabs can be accessed anytime from any device, even offline.
Learn more »
Give kudos to tab author, rate the tab!
1 2 3 4 5
comments
print report bad tab
guest
You may want to rate the tab now too:
select rating
Wanna post a correction for this tab? Suggest correction