Oops, an error
Loading. Please wait.

Cartwheels tab

4,728 views 3 this week
5 commentsread comments
1 2 3 4 5
x 3
add to favorites
×
Save as Personal and add changes to this tab that will be seen only by you. Learn more ›
×
You can save this tab as Personal to edit and correct it or add notes. All changes will be seen only by you. Learn more »
launch autoscroll
font size
0
reset
how to read this tab
guitar tuner
edit
Autoscroll
slow
fast
+/-
esc
set tempo
stop
Author
Artists: Reindeer Section
Title: Cartwheels
Tabbbed and Submitted by Justin Cheong

Note:
- Standard Tuning EADGBe
- Not sure if Bridge actually Starts with A or D.

INTRO & VERSE

e----------------------------------------------------|
B----------------------------------------------------|
G----1--1--1--1--1--1--1--1--1--1--1--1--1--1--1--1--|
D----------------------------------------------------|
A--0--0--0--0--0--0--0--0----------------------------|
E--------------------------0--0--0--0--0--0--0--0----|

                           i'm doin cartwheels..........

BASS NOTE 00:18mins

A E A E A E...............


CHORUS Fill 00:19mins


e------7-------7-------7-------7---|
B----9---9---9---9---9---9---9---9-|
G--9-------9-------9-------9-------|   X4
D----------------------------------|
A----------------------------------|
E----------------------------------|


BRIDGE 01:52mins

      A          D       E
It'll all tie me up into knots
      A          D       E
It'll all tie me up into knots


END with INTRO

            
            
Suggest correction
Creating personal tab
Creating personal tab
You can edit any tab online and save it as your Personal.

You can edit, replace or remove any tab part or add personal notes – all changes will be seen only by you.

Personal tabs can be accessed anytime from any device, even offline.
Learn more »
Give kudos to tab author, rate the tab!
1 2 3 4 5
comments
print report bad tab
5 comments total. Showing first comments.
0 reply
Gamblino 10 Apr 18, 2007 12:45 PM

i think on the bridge part the chords are C minor, A major then Emajor

close to yours but i think it sounds more accurate

0 reply
jammaster 31 Oct 06, 2007 06:28 PM

Lyrics
---------------

I'm doing cartwheels
I'm doing cartwheels
I'm doing cartwheels

My wounds are nicely slated dear
I never got to thank you right
I was finished way before I could see
Quite what you had in mind for me

I'm doing cartwheels
I'm doing cartwheels
I'm doing cartwheels

Now the pessimism in me yawns
As I'm pissing on their perfect front lawns
A voice calls out behind my back
and i take off into the grounds

I'm doing Cartwheels
I'm doing cartwheels
I'm doing cartwheels
It'll all tie me up into knots
It'll all tie me up into knots

I diddn't mean to speak out of turn
Now you can sit and watch me squirm
The party's really in full swing
I wish i had a friend I could ring

I'm doing cartwheels
I'm doing cartwheels
I'm doing cartwheels

You're really loving this aren't you dear
Now you've got me on the ropes out here
With nowhere else to run to now
Just stay and face the music-

It'll all tie me up into knots
It'll all tie me up into knots
It'll all tie me up into knots
----------------------------------------------------------------

Also, i dont know if it's accurate but for solo i like to play the bridge like this (hopefully the pulloffs are understandable):


It'll all tie-me up in-to knots
? D G D/F#
v v v v^v v v v v^v v v v v^v v
e-0-0---2--222---2-2----3--333---3-3---2-222---2-------
B-0-0---3--333---3-3----3--333---3-3---3-333---3-------
G-1-1---2--222---2-2-------------------2-22------------
D------------------------------------------2p2-4p4-----
A------------------------2--222---2-2------------------
E------------------------3--333---3-3--2-222---2-------

0 reply
jammaster 31 Oct 06, 2007 06:38 PM

That formatted incorrectly
Shouldve shown like this:

.It'll..all.....tie-me.up.......in-to.knots............
--?-----D---------------G--------------D/F#------------
--v-v---v--v^v---v-v----v--v^v---v-v---v-v^v---v-------

e-0-0---2--222---2-2----3--333---3-3---2-222---2-------
B-0-0---3--333---3-3----3--333---3-3---3-333---3-------
G-1-1---2--222---2-2-------------------2-22------------
D------------------------------------------2p2-4p4-----
A------------------------2-222---2-2-------------------
E------------------------3-333---3-3---2-222---2-------

guest
You may want to rate the tab now too:
select rating
Wanna post a correction for this tab? Suggest correction