Oops, an error
Loading. Please wait.

Ill Be Here When You Wake tab

1,032 views 1 this week
2 commentsread comments
1 2 3 4 5
3 more votes to show rating
add to favorites
×
Save as Personal and add changes to this tab that will be seen only by you. Learn more ›
×
You can save this tab as Personal to edit and correct it or add notes. All changes will be seen only by you. Learn more »
launch autoscroll
font size
0
reset
how to read this tab
guitar tuner
edit
Autoscroll
slow
fast
+/-
esc
set tempo
stop
Artist: The Reindeer Section
Song: I'll be here when you wake
Finally tabbed by: Charlie Lewis

Iv been looking everywhere for this tab for literaly 2 years, and now i think about it 
should have made this a lot sooner. It didn't sound right for about a year then i 
CAPO ON 5TH FRET!!!!
so I tabbed it. I havent bothered with the timing much cause i figured if your tryin to 
it you probably know how the song goes....

CAPO ON 5TH - Tab is relative to the capo

Ace song
Standard Tuning

Intro/Verse
|------------------------------|       Repeat the neccessary amount of times
|--1---1-1------0------0-------|       Throw in some open top e's and
|--0---0-0------0-2--2-2-2-2-2-|       dont worry about muting all the other
|--2---2-2-0--0-0-3--3-3-3-3-3-|       strings. apart from bottom E
|--3---3---2--2---3--3-3-3-3-3-|
|--x---x---3--3---1--1---0-1-0-|


Chorus
|--0-0-1-1-------1-1-------1-1---0-0-0-0-|
|--1-1-3-3---1-1-3-3---1-1-3-3---1-1-1-1-|
|--0-0-2-2---0-0-2-2---0-0-2-2---0-0-0-0-|
|--2-2-0-0---2-2-0-0---2-2-0-0---2-2-2-2-|   Times 2
|--3-3-------3-3-------3-3-------3-3-3-3-|   listen to the strumming
|--x-x-------x-x-------x-x-------x-x-x-x-|   pattern from the song

......Post chorus
|-0-0-0-0-----------0-0-0-0-|
|-1-1-1-1--0-0-0-0--3-3-3-3-|
|-0-0-0-0--0-0-0-0--2-2-2-2-|
|-2-2-2-2--2-2-2-2--0-0-0-0-|    Once then back to Intro bit with the
|-3-3-3-3--2-2-2-2----------|    flutey thing
|----------0-0-0-0----------|


This is the flute bit but i tabbed it for guitar! how crazy am i?!
|-----3-3------------------------------------------------1-1-1h3-0-|
|--1-----1h3p1-----------------------3---------------------------1-|
|-------------4h5p4-2-----2h4-5---4h5------5p4--5p4-2--------------|
|------------------------------------------------------------------|
|------------------------------------------------------------------|
|------------------------------------------------------------------|

Look I even did the lyrics! woo

	Leave my bed warm and I'll breathe in your smell,
	You shouldn't tell a single soul you know it's red.
	I wanna shout it out it's killing me to hold,
	Hold it in my head when there's barely room for me.

	And I say your name in the darkness like you could, be, there.
	And I miss you more when I'm coming down and I fear, the, door.

	Leave my brain in knots that I'll never quite unfurl,
	I can't make head nor tail of this fizzing on my tongue.
	Both my hands are tied so I can't pick up the phone,
	Even if I wanted to but god i don't.

	And I say your name in the darkness like you could, be, there.
	And I miss you more when I'm coming down and I fear, the, door.

            
            
Suggest correction
Creating personal tab
Creating personal tab
You can edit any tab online and save it as your Personal.

You can edit, replace or remove any tab part or add personal notes – all changes will be seen only by you.

Personal tabs can be accessed anytime from any device, even offline.
Learn more »
Give kudos to tab author, rate the tab!
1 2 3 4 5
comments
print report bad tab
2 comments total.
0 reply
Sc-fi-lullaby 237 Nov 09, 2008 04:46 AM

Intro/Verse
|------------------------------|
|--1---1-1------0------0-------|
|--0---0-0------0-2--2-2-2-2-2-|
|--2---2-2-0--0-0-3--3-3-3-3-3-|
|--3---3---2--2---3--3-3-3-3-3-|
|--x---x---3--3---1--1---0-1-0-|

OP here must have been high on crack when tabbed the verse this is actually how it goes

0 reply
Sc-fi-lullaby 237 Dec 23, 2008 07:13 AM

k never mind i reposted it :)

guest
You may want to rate the tab now too:
select rating
Wanna post a correction for this tab? Suggest correction