Oops, an error
Loading. Please wait.

Seven Potters bass

514 views 1 this week
no commentswrite comment
1 2 3 4 5
2 more votes to show rating
add to favorites
×
Save as Personal and add changes to this tab that will be seen only by you. Learn more ›
×
You can save this tab as Personal to edit and correct it or add notes. All changes will be seen only by you. Learn more »
launch autoscroll
font size
0
reset
guitar tuner
edit
Autoscroll
slow
fast
+/-
esc
set tempo
stop
Author
-----------------------------------------------------------------------------
		        Seven Potters - The Remus Lupins
-----------------------------------------------------------------------------

Tabbed By: Stian Aune
e-mail: Stianaune3@hotmail.com

Tuning: Standard

** LAST EDITED OCTOBER 12 2010 **

Verse:
G|-----------------|-----------------|-----------------|-----------------|
D|---0-2---0-2---2-|-----------------|---4-5---4-5---5-|-----------------|
A|-2-----2-----2---|-----------------|-5-----5-----5---|---------------0-|
E|-----------------|-3---3---3---3---|-----------------|-2---2---2---2---|
>> 1 + 2 + 3 + 4 + > 1 + 2 + 3 + 4 + > 1 + 2 + 3 + 4 + > 1 + 2 + 3 + 4 +

(At the end of the second verse:)
G|-----------xx242-|
D|-----------------|
A|-----------------|
E|-2---2---2-------|
>> 1 + 2 + 3 + 4 +
>>             hp


Pre-Chorus/In the middle of verses/Outro:
G|-----------------|-----------------|-----------------|-----------------|
D|-----------------|-----------------|-----------------|-----------------|
A|-2-222-2-2-------|-2-222-2-2-------|-2-222-2-2-------|-2-222-2-2-------|
E|-----------------|-----------------|-----------------|-----------------|
>> 1 + 2 + 3 + 4 + > 1 + 2 + 3 + 4 + > 1 + 2 + 3 + 4 + > 1 + 2 + 3 + 4 +

(The last bar is replaced with this except from the first time this occures:)
G|-----------------|
D|-----------------|
A|-2-222-2-2/------|
E|-----------------|
>> 1 + 2 + 3 + 4 +

(Before third chorus:)
G|-----------------|-----------------|-----------------|-----------------|
D|-----------------|-----------------|-----------------|-----------------|
A|-222222222-------|-2222-2222-------|-2-22-2222-------|-2-22-22222222/--|
E|-----------------|-----------------|-----------------|-----------------|
>> 1 + 2 + 3 + 4 + > 1 + 2 + 3 + 4 + > 1 + 2 + 3 + 4 + > 1 + 2 + 3 + 4 +

Chorus:
G|-----------------|-----------------|-----------------|-----------------|
D|-----------------|-----------------|-----------------|-2-2-2-2-2-2-2-2-|
A|-5-5-5-5-5-5-5-5-|-----------------|-2-2-2-2-2-2-2-2-|-----------------|
E|-----------------|-3-3-3-3-3-3-3-3-|-----------------|-----------------|
>> 1 + 2 + 3 + 4 + > 1 + 2 + 3 + 4 + > 1 + 2 + 3 + 4 + > 1 + 2 + 3 + 4 +

G|-----------------|-----------------|-----------------|------------------|
D|-----------------|-----------------|-----------------|-4444444444444444-|
A|-----------------|-5-5-5-5-5-5-5-5-|-----------------|------------------|
E|-3-3-3-3-3-3-3-3-|-----------------|-2-2-2-2-2-2-2-2-|------------------|
>> 1 + 2 + 3 + 4 + > 1 + 2 + 3 + 4 + > 1 + 2 + 3 + 4 + > 1+++2+++3+++4+++

Bridge:
G|-----------------|
D|-----------------|
A|-----------------|
E|-------------7\--|
>> 1 + 2 + 3 + 4 +

G|-----------------|-----------------|-----------------|-----------------|
D|-----------------|-----------------|-----------------|-4---------------|
A|-----------------|-2---------------|-5---------------|-----------------|
E|-3---------------|-----------------|-----------------|-------------7\--|
>> 1 + 2 + 3 + 4 + > 1 + 2 + 3 + 4 + > 1 + 2 + 3 + 4 + > 1 + 2 + 3 + 4 +

G|-----------------|-----------------|-----------------|-----------------|
D|-----------------|-----------------|-----------------|-4-----444-4-----|
A|-----------------|-2-----222-2-----|-5-----555-5-----|-----------------|
E|-3-----333-3-----|-----------------|-----------------|-----------------|
>> 1 + 2 + 3 + 4 + > 1 + 2 + 3 + 4 + > 1 + 2 + 3 + 4 + > 1 + 2 + 3 + 4 +

| /  slide up
| \  slide down
| h  hammer on
| p  pull off

// Repetition of different parts varies. If you have listened to the song a few times, 
should tell this easily.
Suggest correction
Creating personal tab
Creating personal tab
You can edit any tab online and save it as your Personal.

You can edit, replace or remove any tab part or add personal notes – all changes will be seen only by you.

Personal tabs can be accessed anytime from any device, even offline.
Learn more »
Give kudos to tab author, rate the tab!
1 2 3 4 5
comments
print report bad tab
guest
You may want to rate the tab now too:
select rating
Wanna post a correction for this tab? Suggest correction