Oops, an error
Loading. Please wait.

Bonethrower Tab

version 1
version 1

Whole song

239 views 1 this week
1 commentread comment
1 2 3 4 5
x 4
add to favorites
launch autoscroll
font size
0
reset
how to read this tab
guitar tuner
×
Best way to learn
"Bonethrower"
Autoscroll
slow
fast
+/-
esc
set tempo
stop
The Revolution Smile
"Bonethrower"
Above The Noise
Tabbed by: Paul

OK. I havent seen this tab ANYWHERE, so i tabbed it out myself. This is my first tab. enjoy!

(heavy distortion) 
Eb-------------------------------------------------------------------------
Bb-------------------------------------------------------------------------
Gb-------------------------------------------------------------------------
Db-------------------------------------------------------------------------        
Ab-------------------------------------------------------------------------
Db-3--0--3--5--3--0--3----3--0--3--5--3--0--3-----4x-----------------------

Verse
Eb-------------------------------------------------------------------------
Bb-------------------------------------------------------------------------   
Gb-------------------------------------------------------------------------
Db-------------------------------------------------------------------------
Ab-3---(let it ring) ------------------------------------------------------
Db-3-----------------------------------------------------------------------

Eb-------------------------------------------------------------------------
Bb-------------------------------------------------------------------------
Gb-------------------------------------------------------------------------
Db-------------------------------------------------------------------------
Ab-------------------------------------------------------------------------
Db-3--0--3--5--3--0--3----3--0--3--5--3--0--3------------------------------

Chorus (2x)
Eb-------------------------------------------------------------------------
Bb-------------------------------------------------------------------------
Gb-------------------------------------------------------------------------
Db-------------------------------------------------------------------------
Ab-0-------3-------5-------------------------------------------------------
Db-0-------3-------5-------------------------------------------------------

Repeat Intro

Repeat Verse

Then is goes into this....

Guitar 1
Eb-------------------------------------------------------------------------
Bb-------------------------------------------------------------------------
Gb-------------------------------------------------------------------------
Db-------------------------------------------------------------------------
Ab-3-0---3--0--3--0------------keep repeating------------------------------
Db-3-0---3--0--3--0--------------------------------------------------------

Then Guitar 2 comes in.....
Eb-------------------------------------------------------------------------
Bb-------------------------------------------------------------------------
Gb--14-11--14-11-14(bend up 1/4 step)-11----14-11-14(bend up 1/4 step)-11--
Db-------------------------------------------------------------------------
Ab-------------------------------------------------------------------------
Db-------------------------------------------------------------------------

Eb-------------------------------------------------------------------------
Bb-------------------------------------------------------------------------
Gb--14-11-14(bend up 1/4 step)-11---14-11-14(bend up 1/4 step)-------------
Db-------------------------------------------------------------------------
Ab-------------------------------------------------------------------------
Db-------------------------------------------------------------------------

The interlude is the same as the chorus but with heavy Flange.
listen to song for strumming rhythm

Repeat chorus

Repeat intro with a fall off on the last note
Suggest correction
comments
print report bad tab
1 comment total.
0 reply
avalanche13 10 Aug 01, 2008 04:25 PM

Verse
Eb-------------------------------------------------------------------------
Bb-------------------------------------------------------------------------
Gb-------------------------------------------------------------------------
Db-------------------------------------------------------------------------
Ab-1--1--1--1--1--1-------------------------------------------------------------
Db-1--1--1--1--1--1-------------------------------------------------------------


Chorus (2x)
Eb-------------------------------------------------------------------------
Bb-------------------------------------------------------------------------
Gb-------------------------------------------------------------------------
Db-------------------------------------------------------------------------
Ab-0-------8-------5-------------------------------------------------------
Db-0-------8-------5-------------------------------------------------------

guest
You may want to rate the tab now too:
select rating
Wanna post a correction for this tab? Suggest correction