Oops, an error
Loading. Please wait.

Bad Guy Reaction Bass Tab

180 views 1 this week
no commentswrite comment
1 2 3 4 5
3 more votes to show rating
add to favorites
launch autoscroll
font size
0
reset
guitar tuner
Autoscroll
slow
fast
+/-
esc
set tempo
stop
Help us to improve Ultimate-Guitar.com Take our survey!
×
Author
Difficulty
intermediate
ok - bear with me
Tabbed in sections & not 100%
Lyrics added to help structure


Drum intro then as below for x11

Vocals start after x5
          Out in the streets......
|------------------|
|---------3-2-0----|
|-2--0-2-----------|
|------------------|


        Im Getting that
|----------------|
|----------------|
|-2-0-2-0-2-0----|
|----------------|


  Bad guy reaction....
|----------------------------------------------------------------|
|-2-2-2-2-2-2-2-2-2-2-2-2-2-4-2-0---------3-2-0-------------0----|
|---------------------------------2--0-2--------2--0-2--0-2------|
|----------------------------------------------------------------|


      Won't listen to me
|-----------2-4-2----------------------|
|---------4-------4-2-3-2-0------------|
|-5-5-5-5-------------------2-0---0----|
|-------------------------------2------|


Listen to the song to fit this all together
Suggest correction
Give kudos to tab author, rate the tab!
1 2 3 4 5
comments
print report bad tab
guest
You may want to rate the tab now too:
select rating
Wanna post a correction for this tab? Suggest correction