Oops, an error
Loading. Please wait.

Flying Saucer Attack Bass Tab

version 2
version 2

Whole song

Interactive

474 views 1 this week
no commentswrite comment
1 2 3 4 5
please rate
add to favorites
launch autoscroll
font size
0
reset
guitar tuner
Tab Pro tools
  • play this tab
  • loop segment
  • change instrument
  • show fretboard
  • metronome
×
Best way to learn
"Flying Saucer Attack"
Autoscroll
slow
fast
+/-
esc
set tempo
stop
Contributor
Difficulty
intermediate
ok - this takes you through to the end of the chorus
The rest of the song is built round it

Solo bass

|-2-2-1-1-0-0-------------------------------------------------------|
|-------------4-4-3-3-2-2-1-1-0-0-----------------------------------|
|---------------------------------4-4-3-3-2-2-1-1-0-0---------------|
|-----------------------------------------------------4-4-3-3-2-2---|



|---------------------------------------------------------0-0-1-2----|
|-------------------------------------0-0-1-1-2-2-3-3-4-4------------|
|-----------------0-0-1-1-2-2-3-3-4-4--------------------------------|
|-1-1-2-2-3-3-4-4----------------------------------------------------|


Guitar comes in
|--------------------------------------------------------------------|
|--------------------------------------------------------------------|
|-0-0-2-2-3-3-4-4-5-5-4-4-3-3-2-2-0-0-2-2-3-3-4-4-5-5-4-4-3-3-2-2----|
|--------------------------------------------------------------------|



|--------------------------------------------------------------------|
|--------------------------------------------------------------------|
|-0-0-2-2-3-3-4-4-5-5-4-4-3-3-2-2-0-0-2-2-3-3-4-4-5-5-0-0-5-5-0-0----|
|--------------------------------------------------------------------|



|----------------------------------------------------|
|-5-5-----5-5-------------5-5-----5-5----------------|
|-----5-5-----5-5-1-3-0-5-----5-5-----5-5-1-3-0-5----|
|----------------------------------------------------|



|------------------------------------------------------------|
|-5-5-----5-5------------------------------------------------|
|-----5-5-----5-5-1-3-0-5-0-5-5-5-5-5-5-5-5-5-7-7-8-8-9-9----|
|------------------------------------------------------------|


There's a threat......
|-----------------9--------------------------------------------9------------|
|-------9-9-12-12---12-------------------11----------9-9-12-12---12---------|
|-10-10----------------------11-11-14-14----14-10-10----------------10--9-11|
|----------------------12-12------------------------------------------10----|



|-----------------9----------------------------------------------|
|-------9-9-12-12---12-------------------11----------------------|
|-10-10----------------------11-11-14-14----14-10-10-12-12-10----|
|----------------------12-12-------------------------------------|


   
|-----------------9--------------------------------------------9------------|
|-------9-9-12-12---12-------------------11----------9-9-12-12---12---------|
|-10-10----------------------11-11-14-14----14-10-10----------------10--9-11|
|----------------------12-12------------------------------------------10----|



|-----------------9----------------------------------------------|
|-------9-9-12-12---12-------------------11----------------------|
|-10-10----------------------11-11-14-14----14-10-10-12-12-10----|
|----------------------12-12-------------------------------------|


Flying saucer attack......
|------------------------------------------------------|
|--------7---------------------------------------------|
|---7-10---10-7---7------------------------------------|
|-8-------------5---5-5-5-4-4-3-3-4-4-5-5-4-4-3-3-0----|


Im never coming back.......      Oh wow wow once & it's over.....   
|------------------------------------------------------------------|
|--------7--------------9---------------5-------1-3-5-5-5-5-5-3----|
|---7-10---10-7----9-12---12-10---7---3---3-1-3--------------------|
|-8-------------10--------------5---5------------------------------|



|------------------------------|
|------------------------------|
|-5-1-3-1-5-5-5-5-5-5-5-5-5----|
|------------------------------|
comments
We did not receive enough feedback on this tab! Please rate:
print report bad tab
1 2 3 4 5
I want to post or [tab]
guest
You may want to rate the tab now too:
select rating
Please do not post tabs as comments. Select "correction" instead!