Oops, an error
Loading. Please wait.

My Baby Does Good Sculptures Bass Tab

738 views 1 this week
no commentswrite comment
1 2 3 4 5
2 more votes to show rating
add to favorites
launch autoscroll
font size
0
reset
guitar tuner
Autoscroll
slow
fast
+/-
esc
set tempo
stop
Help us to improve Ultimate-Guitar.com Take our survey!
×
Author
Difficulty
intermediate
 Intro
|--------------------------------------|
|----7-7------7-7------7-7------7-7----|
|-7--------7--------7--------7---------|
|--------------------------------------|


 She Dont care......
|--------------------------------------|
|----7-7------7-7------7-7---7---------|
|-7--------7--------7-----------5-5----|
|--------------------------------------|


Don't love my baby for her ....
|-----4-----------------------------------|
|-5-7-------------------------------------|
|-------5----(5)-5-5-5-5-5-5-5-5-5-5-5----|
|-----------------------------------------|


 I love my baby cos she does good.......
|-4-------------------4---------------6---------------------------|
|---7-4-------4-4-7-7---7-----6-6-9-9---9-7-7----7-7-----7-7------|
|-------5---5-------------7-7-----------------7-------7-----------|
|-----------------------------------------------------------------|


Run into guitar solo
|----------------------------------------------------------|
|-----7-0-5-0-4-0-----7-0-5-0-4-0-----7-0-5-0-4-0----------|
|-0-7-------------0-7-------------0-7----------------------|
|----------------------------------------------------------|
Suggest correction
Give kudos to tab author, rate the tab!
1 2 3 4 5
comments
print report bad tab
guest
You may want to rate the tab now too:
select rating
Wanna post a correction for this tab? Suggest correction