Oops, an error
Loading. Please wait.

Somebodys Gonna Get Their Head Kicked In Tonight Bass Tab

version 1
version 1

Whole song

Interactive

1,364 views 3 this week
1 commentread comment
1 2 3 4 5
please rate
add to favorites
launch autoscroll
font size
0
reset
guitar tuner
Autoscroll
slow
fast
+/-
esc
set tempo
stop
Help us to improve Ultimate-Guitar.com Take our survey!
×
Author
Difficulty
intermediate
g---------------------|
d---------------------|
a---------------------|
e 3-3-0-1-2-3-3-0-1-2-| repeat 4 times

g-------------------------|
d-------------------------|
a-----0-1-2-3-3-0-1-2-3---|
e-3-3---------------------|  2x

g-----------------|
d-----------------|
a-3-3-3-3-3-4-4-5-|   kicked in tonight!
e-----------------|


repeat and that's pretty much the entire song.  great bass line from william mysterious here.
Suggest correction
Give kudos to tab author, rate the tab!
1 2 3 4 5
comments
print report bad tab
1 comment total.
0 reply
frenchabortion 13,809 wrote on March 3 2009, 05:43 am

the bridge or chorus or whatever the hell ya wanna call it is...
G---------------------------------------------------------------|
D---------------------------------------------------------------|
A-3-3-3-3-3-3-3-3-----------------3-3-3-3-3-3-3-3--5*-----------|
E-----------------3-3-3-3-3-3-3-3-------------------------------|

guest
You may want to rate the tab now too:
select rating
Please do not post tabs as comments. Select "correction" instead!