Oops, an error
Loading. Please wait.

Top Of The Pops bass

452 views 3 this week
no commentswrite comment
1 2 3 4 5
3 more votes to show rating
add to favorites
×
Save as Personal and add changes to this tab that will be seen only by you. Learn more ›
×
You can save this tab as Personal to edit and correct it or add notes. All changes will be seen only by you. Learn more »
launch autoscroll
font size
0
reset
guitar tuner
edit
Autoscroll
slow
fast
+/-
esc
set tempo
stop
Author
Difficulty
The Rezillos - Top of the Pops

Bass tab
Tabbed by Dubwerk
Key - D
Tuning - Standard (E-A-D-G)


This is a brilliant song and for some reason I 
have never come across a bass tab for it anywhere. 
I welcome any suggestions/ improvements as it's 
all done by ear and there may be some mistakes 
here and there.

Enjoy!


 ~ : Let note ring
 / : Slide


Intro:

G|--------------------------------|
D|--------------------------------|
A|3-3-3-3-3-3-3-3-0-0-0-0-0-0-0-0-|
E|--------------------------------|

Verse:

Hold tight...

G|--------------------------------|
D|0-0-0-0-0-0-0-0-------------2---|
A|----------------0~----0-4-4---4-|
E|--------------------------------|

Cue Light...

G|--------------------------------|
D|0-0-0-0-0-0-0-0-----------------|
A|----------------2~----2---------|
E|------------------------3-3-5-5-|

Tonight...

G|--------2-0---------------------|
D|0~----0-----3-0---------5-3-----|
A|----------------3~----3-----5-3-|
E|--------------------------------|

G|--------------------------------|
D|--------------------------------|
A|------------------2-2-2-2---4---|
E|5~----5~----5~------------------|

It's fun...

G|--------------------------------|
D|0-0-0-0-0-0-0-0-------------2---|
A|----------------0~----0-4-4---4-|
E|--------------------------------|

Hold on...

G|--------------------------------|
D|0-0-0-0-0-0-0-0-----------------|
A|----------------2~----2---------|
E|------------------------3-3-5-5-|

You're on...

G|--------2-0---------------------|
D|0~----0-----3-0---------5-3-----|
A|----------------3~----3-----5-3-|
E|--------------------------------|

G|--------------------------------|
D|--------------------------------|
A|------------------2-2-2-2---4---|
E|5~----8~----5~------------------|

Bridge:

Does it matter...

G|----------------4---4---4---4---|
D|5---5---5---5---------5---5-----|
A|------5---5---------------------|
E|--------------------------------|

G|2---2---2---2---2-2-0-----------|
D|------2-------2---------4---2---|
A|--------------------------------|
E|--------------------------------|

What is selling...

G|----------------4---4---4---4---|
D|5---5---5---5---------5---5-----|
A|------5---5---------------------|
E|--------------------------------|

G|2---2---2---2---2-2-------------|
D|------2-------2-----------------|
A|------------------------2~--4~--|
E|--------------------0~----------|

Chorus:

Take the money...

G|--------------2~--2-2-2---------|
D|0-0-0-0-4---0-------------------|
A|------------------------2-2-4-4-|
E|--------------------------------|

G|--------------2~--2-2-2-2-------|
D|0-0-0-0-4---0-------------------|
A|--------------------------0-2-4-|
E|--------------------------------|

G|--------------2~--2-2-2-2-2-2-2-|
D|0-0-0-0-4---0-------------------|
A|--------------------------------|
E|--------------------------------|

Everybody's on Top...

G|--------------------------------|
D|5-5-5-5-5-5-5-5-5-5-5-5-5-5-5-5-|
A|--------------------------------|
E|--------------------------------|

of the Pops...

G|--------------------------------|
D|7-7-7-7-7-7-7-7-7---------------|
A|--------------------------------|
E|--------------------------------|

Verse 2: Same as first verse
Bridge
Chorus

Instrumental section:

G|--------------------------------|
D|0-0-0-0-0-----------------------|
A|----------------0-0-0-0-0-------|
E|--------------------------------|

G|--------------------------------|
D|0-0-0-0-0-----------------------|
A|----------------2-2-2-2-2~--4~--|
E|--------------------------------|

G|--------------------------------|
D|--------------------------------|
A|5-5-4-5-5-5-4-5-3-3-2-3-3-3-2-3-|
E|--------------------------------|

G|--------------------------------|
D|--------------------------------|
A|0~----0~----0~----2-2-2-2~--0~--|
E|--------------------------------|

G|----------------4~--2~--0~------|
D|5~--4~--2~--0~--------------4~--|
A|--------------------------------|
E|--------------------------------|

G|2-2-2-2/2-2-2/2~--2-2-2-0~------|
D|----------------------------4~--|
A|--------------------------------|
E|--------------------------------|

G|----------------4~--2~--0~------|
D|5~--4~--2~--0~--------------4~--|
A|--------------------------------|
E|--------------------------------|

G|2-2-2-2/2-2-2/2~--2-------------|
D|--------------------------------|
A|--------------------0-0-2-2-4-4-|
E|--------------------------------|

Verse 3
Bridge
Chorus

Outtro:

G|--------------------------------|
D|5-5-5-5-5-5-5-5-5-5-5-5-5-5-5-5-|
A|--------------------------------|
E|--------------------------------|

G|--------------------------------|
D|7-7-7-7-7-7-7-7-7---------------|
A|--------------------------------|
E|--------------------------------|
Suggest correction
Creating personal tab
Creating personal tab
You can edit any tab online and save it as your Personal.

You can edit, replace or remove any tab part or add personal notes – all changes will be seen only by you.

Personal tabs can be accessed anytime from any device, even offline.
Learn more »
Give kudos to tab author, rate the tab!
1 2 3 4 5
comments
print report bad tab
guest
You may want to rate the tab now too:
select rating
Wanna post a correction for this tab? Suggest correction