Oops, an error
Loading. Please wait.

Repeated Offender bass

752 views 1 this week
no commentswrite comment
1 2 3 4 5
3 more votes to show rating
add to favorites
×
Save as Personal and add changes to this tab that will be seen only by you. Learn more ›
×
You can save this tab as Personal to edit and correct it or add notes. All changes will be seen only by you. Learn more »
launch autoscroll
font size
0
reset
guitar tuner
edit
Autoscroll
slow
fast
+/-
esc
set tempo
stop
Author
-------------------------------------------------------------------------------
			     Repeated Offender - The Rifles
-------------------------------------------------------------------------------

Tabbed By : bud_spencer
e-mail:

Tuning: E A D G


Intro
G|-----------------------------------------------------------------------|
D|-----------------------------------------------------------------------|
A|-3-3-3--3-3-33-4--5-5-5--5-5-5-----------------------------------------|
E|-------------------------------0-1---3-3-3--3-3-33-5--1-1-1-0-1-11-1-2-|

Verse
G|-----------------------------------------------------------------------|
D|-----------------------------------------------------------------------|
A|---------------3--5-5-5--5-5-5-7-8---------------3-5-5-5--5-5-55-4-----|
E|-3-3-3--3-3-35---------------------3-3-3--3-3-35-----------------------|

G|-----------------------------------------------------------------------|
D|-----------------------------------------------------------------------|
A|-3-3-3--3-3-33-4--5-5-5--5-5-5-----------------------------------------|
E|-------------------------------0-1---3-3-3--3-3-33-5--1-1-1-0-1-11-1-2-|


Chorus
G|------------------------------------------------------------------------|
D|------------------------------------------------------------------------|
A|------------------------------------------------------------------------|
E|-6-6-6-66-6-6-9-5--5-5-5-55-5-5-8-5--4-4-4-44-4-4-7-4--3-3-3-33-3-3-3-5-|
                                                         normal ending      alt. ending
G|-----------------------------------------------------|------------------|-------------|
D|-----------------------------------------------------|------------------|-------------|
A|-----------------------------------------------------|------------------|-----3-3-----|
E|-6-6-6-66-6-6-9-5--5-5-5-55-5-5-8-5--4-4-4-44-4-4-7-4|-3-3-3-0-1-3------|-3-3-----4-4-|


Break 1
G|-----------------|
D|-----------------|
A|-5--10/0----5-4--|
E|-----------------|

Break 2
G|----------------------------------------------------------------------|
D|----------------------------------------------------------------------|
A|-5-5-5-5-5-5-5-7-----------------7-7-7-7-7-7-7------------------------|
E|-----------------5-5-5-5-5-5-5-7---------------7-5-5-5-5-5-5-5-7------|

G|-------------------------------------------------------------------------|
D|-------------------------------------------------------------------------|
A|-5-5-5-5-5-5-5-6-7-7-7-7-7-7-7-57-8-8-8-8-8-8-7-8-10-10-10-10-10-8-7-5---|
E|-------------------------------------------------------------------------|

Outro
G|------------------------------------------------------------------------|
D|------------------------------------------------------------------------|
A|-3-3-3-33-3-3-6-3--2-2-2-22-2-2-5-2--1-1-1-11-1-1-4-1-------------------|
E|-------------------------------------------------------5-5-5-55-5-5-5-7-|

G|------------------------------------------------------------------------|
D|------------------------------------------------------------------------|
A|-3-3-3-33-3-3-6-3--2-2-2-22-2-2-5-2--1-1-1-11-1-1-4-1-----5-------------|
E|------------------------------------------------------5-5---6-5~--------|

Intro 			x1
Verse 			x2
Chorus 			x1
Verse 			x2
Break 			x1
Intro			x1
Chorus with alt. ending x1
Break 2			x1
Outro 			x1

| /  slide up
| \  slide down
| h  hammer-on
| p  pull-off
| ~  hold note
| +  harmonic
| x  Mute note
===============================================================================
Suggest correction
Creating personal tab
Creating personal tab
You can edit any tab online and save it as your Personal.

You can edit, replace or remove any tab part or add personal notes – all changes will be seen only by you.

Personal tabs can be accessed anytime from any device, even offline.
Learn more »
Give kudos to tab author, rate the tab!
1 2 3 4 5
comments
print report bad tab
guest
You may want to rate the tab now too:
select rating
Wanna post a correction for this tab? Suggest correction