Oops, an error
Loading. Please wait.

Shes Got Standards bass

version 2
version 2

Whole song

Interactive

511 views 3 this week
no commentswrite comment
1 2 3 4 5
3 more votes to show rating
add to favorites
×
Save as Personal and add changes to this tab that will be seen only by you. Learn more ›
×
You can save this tab as Personal to edit and correct it or add notes. All changes will be seen only by you. Learn more »
launch autoscroll
font size
0
reset
guitar tuner
edit
Autoscroll
slow
fast
+/-
esc
set tempo
stop
Author
-------------------------------------------------------------------------------
			     She's got standards - The Rifles
-------------------------------------------------------------------------------

Tabbed By : bud_spencer

Tuning: E A D G

Intro 
G|---------------------------|
D|---------------------------|
A|-------5-5-5-5-5-5-5-555---|
E|--0~-----------------------|

Verse
G|------------------------------------------------------------------|
D|------------------------------------------------------------------|
A|-7-7-7-7-7-7-7-7-7-7-7-7-7-7-7-6-5-5-5-5-5-5-5-5-5-5-5-5-5-5-5-6--|
E|------------------------------------------------------------------|

G|-------------------------------------------------------------------|
D|-------------------------------------------------------------------|
A|-7-7-7-7-7-7-7-7-7-7-7-7-7-7-7-6-5-5-5-5-5-5-5-5-5-5-5-5-5-5----5--|
E|-------------------------------------------------------------77----|

Pre-chorus
G|-----------------------------------------------------|
D|-------7-9-7-------7-9-7----------7-9-7--------------|
A|--7-77-------7-777-------7--------------------55-55--|
E|---------------------------7-77---------7-777--------| (2x)

Chorus
G|-----------------------------------------------------------|
D|---------------------------------------9------------9------|
A|----------------------------------7-77---7-5---7-77---7-5--|
E|-5-5-5-5-5-5-5-5-5-5-5-5-5-5-5-5---------------------------|

G|--------------------------------------------------------------|
D|---------------------------------------9----------------------|
A|----------------------------------7-77---7-5---7-7777----5-7/0|
E|-5-5-5-5-5-5-5-5-5-5-5-5-5-5-5-5----------------------5-7-----|

Post Chorus 1
G|--------------|
D|--------------|
A|-----------5--|
E|-0-0-0-5-7----|

Post Chorus 2
G|--------------------------------------|
D|--------------------------------------|
A|--------------5-6-7/0--------------5--|
E|-12/5-5--7-7-----------12/5-5--7-7----|

Post Chorus 3
G|-----------------------------------------------------------------|
D|-----------------------------------------------------------------|
A|-7~---9~---------9--7-7-7-7-7-7-77-10-9-7------------------------|
E|----------7~---7---------------------------7-7-7-7-7-7-7-10-9-7--|

Outro
G|-----------------------------------------------------------|
D|---------------------------------------9------------9------|
A|----------------------------------7-77---7-5---7-77---7-5--|
E|-5-5-5-5-5-5-5-5-5-5-5-5-5-5-5-5---------------------------| (3x)

G|-------------------------------------|
D|-------------------------------------|
A|----------------------------------7~-|
E|-5-5-5-5-5-5-5-5-5-5-5-5-5-5-5-5-----| 

Intro 		x1 
Verse 		x1
Pre-Chorus 	x1
Verse 		x1
Pre-Chorus	x1
Chorus 		x1
Post Chorus 1 	x1
Verse 		x1
Chorus 		x1
Post Chorus 2	x1
Pre-Chorus	x1
Chorus		x1
Post Chorus 3	x1
Outro		x1

| /  slide up
| \  slide down
| h  hammer-on
| p  pull-off
| ~  hold note
| +  harmonic
| x  Mute note
===============================================================================

            
            
Suggest correction
Creating personal tab
Creating personal tab
You can edit any tab online and save it as your Personal.

You can edit, replace or remove any tab part or add personal notes – all changes will be seen only by you.

Personal tabs can be accessed anytime from any device, even offline.
Learn more »
Give kudos to tab author, rate the tab!
1 2 3 4 5
comments
print report bad tab
guest
You may want to rate the tab now too:
select rating
Wanna post a correction for this tab? Suggest correction