Oops, an error
Loading. Please wait.
We have an official Unchained Melody tab made by UG professional guitarists. Check out the tab »
×
880 views 12 this week
no commentswrite comment
1 2 3 4 5
3 more votes to show rating
add to favorites
×
Save as Personal and add changes to this tab that will be seen only by you. Learn more ›
×
You can save this tab as Personal to edit and correct it or add notes. All changes will be seen only by you. Learn more »
launch autoscroll
font size
0
reset
guitar tuner
edit
Autoscroll
slow
fast
+/-
esc
set tempo
stop
Author
Difficulty
Unchained Melody
Released by The Righteous Brothers in 1965 reached number 14 UK.
Tab by bass50611 and tabbed it in its original key of C. More or 
Less as the original bass line. Comments at bass254@btinternet.com 

Verse 1:
  Ooooooh, my love.....my darling I’ve hungered for your touch 
G|------------------------------------------------------------------
D|------------------------------------------------------------------
A|---------------------------8--8-8--8---10--10-10--10--------------
E|-8--8-8--8-----5--5-5--5--------------------------------8--8-8--8-

  A long...lonely time...................And time....goes by 
G|------------------------------------------------------------------
D|------------------------------------------------------------------
A|------------------------------------------------------------------
E|-5--5-5--5------3--3-3--3---3--3-3--3------8--8-8--8-----5--5-5—5-

  So slowly...and time....can do so much.......Are you still..
G|------------------------------------------------------------
D|------------------------------------------------------------
A|---8--8-8--8---10--10-10--10--------------------------------
E|---------------------------------8--8-8--8---5--5-5--5------

  Miiiiiiiiine.....................I need your love
G|-----------------------------------------------------------------
D|-----------------------------------------------------------------
A|------------10--10-10--10--------------------------10--10-10--10-
E|-3--3-3--3------------------------8--8-8--8----------------------

  I......need your love ...........God speed your love
G|----------------------------------------------------
D|----------------------------------------------------
A|-12--12-12--12--------------------------------------
E|-----------------12--12-12--12----13--13-13--13-----

  Toooooooooooooo..Me
G|-----------------------------------------
D|-----------------------------------------
A|-10--10-10--10-7-------------------------
E|----------------10-8--8-8--8---8--8-8--8-

Bridge:
 Lonely rivers flow to the sea...to the sea....to the open arms of
G|--------------------------------------------------------------------
D|--------------------------------------------------------------------
A|-8----8------10----10-----8----8------6---6---8-----8----10----10---
E|--------------------------------------------------------------------

The sea.......... Lonely rivers sigh...wait for me...wait for me
G|--------------------------------------------------------------------
D|--------------------------------------------------------------------
A|------------5-6-8------8------10----10--------8-----8-------6-----6-
E|-8--8--8--8---------------------------------------------------------

   I’ll be coming home...wait for me
G|--------------------------------------------------
D|----------------5------5--------------------------
A|-8------8-----------------------3---3---3-----0-2-
E|--------------------------------------------3-----

Verse 1:
  Ooooooh, my love.......my darling I hunger, hunger for your love 
G|------------------------------------------------------------------
D|------------------------------------------------------------------
A|-3--3-3--3-----------------8--8-8--8---10--10-10--10--------------
E|---------------5--5-5--5--------------------------------8--8-8--8-

  A long...lonely time...................And time....goes by 
G|------------------------------------------------------------------
D|------------------------------------------------------------------
A|-------------------------------------0-2-3--3-3--3----------------
E|-5--5-5--5------3--3-3--3---3--3-3--3-------------------5--5-5--5-

  So slowly...and time....can do so much.......Are you still..
G|------------------------------------------------------------
D|------------------------------------------------------------
A|---8--8-8--8---10--10-10--10--------------------------------
E|---------------------------------8--8-8--8---5--5-5--5------

  Miiiiiiiiine...........................I need your love
G|--------------------------------------------------------------
D|--------------------------------------------------------------
A|-----------------------------------------3--3-3--3------------
E|-3--3-3--3--3-3-3-3-3-3-3-3--3-3-3-3----------------3--3-3--3-

  I need your love .......God speed your love to.........me
G|------------------------------------------------------------------
D|------------------------------------------------------------------
A|--------------------------------------------------------3--3-3--2-
E|--5--5-5--5---0--0-0--0-----1--1-1--1-------3--3-3--3-------------

G|----------------------------------------
D|----------------------------------------
A|-0--0-0--0----------------------------3-
E|------------1--1-1--1-1-1-1-1-1-1-1-1---


            
            
Suggest correction
Creating personal tab
Creating personal tab
You can edit any tab online and save it as your Personal.

You can edit, replace or remove any tab part or add personal notes – all changes will be seen only by you.

Personal tabs can be accessed anytime from any device, even offline.
Learn more »
Give kudos to tab author, rate the tab!
1 2 3 4 5
comments
print report bad tab
guest
You may want to rate the tab now too:
select rating
Wanna post a correction for this tab? Suggest correction