Oops, an error
Loading. Please wait.

Keep On Keepin On Tab

1,135 views 1 this week
no commentswrite comment
1 2 3 4 5
3 more votes to show rating
add to favorites
launch autoscroll
font size
0
reset
how to read this tab
guitar tuner
Autoscroll
slow
fast
+/-
esc
set tempo
stop
Help us to improve Ultimate-Guitar.com Take our survey!
×
Difficulty
intermediate
KEEP ON KEEPIN' ON
BY 
THE RIPTIDE MOVEMENT

2 Guitars (not always in at the same time)


INTRO Chords (D, D/C#) picking
                  cont->                          strings
---------------------------------------------------e   
---------------------------------------------------b
----2---2---2---2----------2---2---2---2---2---2---g
--0---0---0---0------------------------------------d
-------------------------4---4---4---4---4---4-----a
---------------------------------------------------e

then song kicks on (stays like this for 1st chorus)
bit of a palm mute and an upstroke happening

keep keepin on....
  
--2---2---2---2--------------------------------------e   
--3---3---3---3--------------------------------------b
--2---2---2---2--------------------------------------g
--0---0---0---0--------------------------------------d
-----------------------------------------------------a
-----------------------------------------------------e

VERSE (Guitar 2 - lead)

--------------------------------------------e   
--------------------------------------------b
--2-----7-9-7---2-4-2-----------------------g
--0-----0-0-0---0-0-0----0-2-0---0-2-0------d       x 2
-------------------------------2------------a
--------------------------------------------e

CHORUS (same as above)

Keep Keepin on

BRIDGE 

--------------------------------------------------------e
--------------------------------------------------------b
--2--2-2-2---------------------2----2---4----2----------g
--0--0-0-0----2-4-2-4-2-4-2-4-2-----0---0----0----------d    x 2
--------------------------------------------------------a
--------------------------------------------------------e
               h-p-h     h-p
 h= hammer on 
 p= pull off


VERSE (Same as 1st one)

CHORUS X 2

(second time around play the D chord with higher octave)
Suggest correction
Give kudos to tab author, rate the tab!
1 2 3 4 5
comments
print report bad tab
guest
You may want to rate the tab now too:
select rating
Wanna post a correction for this tab? Suggest correction