Oops, an error
Loading. Please wait.

California Sun bass

version 1
version 1

Whole song

286 views 1 this week
no commentswrite comment
1 2 3 4 5
3 more votes to show rating
add to favorites
×
Save as Personal and add changes to this tab that will be seen only by you. Learn more ›
×
You can save this tab as Personal to edit and correct it or add notes. All changes will be seen only by you. Learn more »
launch autoscroll
font size
0
reset
guitar tuner
edit
Autoscroll
slow
fast
+/-
esc
set tempo
stop
-------------------------------------------------------------------------------
                             California Sun - The Rivieras
-------------------------------------------------------------------------------
Tabbed by: CorporalCrunch 
Tuning: Standard


Guitar Riff:
G|------------5-5-8----|
D|----5-8-8-8-------8--|
A|6-6------------------|
E|---------------------|


Intro: 
G|-----------5-8-5-|---------5-5-5-5------------------|
D|--5-8-5--6-------|---5-8-5---------6-6-8-8----------|
A|6----------------|-6-----------------------6-6-6-6--|
E|-----------------|----------------------------------|
          x4

"Well, I'm goin' out west where I belong..."


Verse 1: "...Well they walk"
G|-----------5-8-5-|---------5-5-5-5------------------|
D|--5-8-5--6-------|---5-8-5---------6-6-8-8----------|
A|6----------------|-6-----------------------6-6-6-6--|
E|-----------------|----------------------------------|
          x4

"Well, I'm goin' out west out on the coast..."


Chorus 2: "...Well they walk"
G|-----------5-8-5-|---------5-5-5-5------------------|
D|--5-8-5--6-------|---5-8-5---------6-6-8-8----------|
A|6----------------|-6-----------------------6-6-6-6--|
E|-----------------|----------------------------------|
          x4

Guitar Solo:
G|--------|------------5-8-5-|---------5-5-5-5------------------|
D|--5-8-5-|---5-8-5--6-------|---5-8-5---------6-6-8-8----------|
A|6-------|-6----------------|-6-----------------------6-6-6-6--|
E|--------|------------------|----------------------------------|
      x4            x4

"Well the girls are frisky in old ‘Frisco.."


Chorus 3: "...Well they walk"
G|-----------5-8-5-|---------5-5-5-5------------------|
D|--5-8-5--6-------|---5-8-5---------6-6-8-8----------|
A|6----------------|-6-----------------------6-6-6-6--|
E|-----------------|----------------------------------|
          x4


Conclusion: "Yeah they're out there a'havin' fun..."
G|---------5-5-5-5------------------|
D|---5-8-5---------6-6-8-8----------|
A|-6-----------------------6--6-6-6-|
E|----------------------------------|

===============================================================================
Suggest correction
Creating personal tab
Creating personal tab
You can edit any tab online and save it as your Personal.

You can edit, replace or remove any tab part or add personal notes – all changes will be seen only by you.

Personal tabs can be accessed anytime from any device, even offline.
Learn more »
Give kudos to tab author, rate the tab!
1 2 3 4 5
comments
print report bad tab
guest
You may want to rate the tab now too:
select rating
Wanna post a correction for this tab? Suggest correction