Oops, an error
Loading. Please wait.

California Sun tab

403 views 6 this week
no commentswrite comment
1 2 3 4 5
2 more votes to show rating
add to favorites
×
Save as Personal and add changes to this tab that will be seen only by you. Learn more ›
×
You can save this tab as Personal to edit and correct it or add notes. All changes will be seen only by you. Learn more »
launch autoscroll
font size
0
reset
how to read this tab
guitar tuner
edit
Autoscroll
slow
fast
+/-
esc
set tempo
stop
Author
Difficulty
[Intro riff]
E|-----------------------------|
B|-----------------------------|
G|--------------------5--8-----| (x3)
D|--------5--8--8--8--------8--|
A|--6--6-----------------------|
E|-----------------------------|

[Intro ending]
E|-----------------------|
B|-----------------------|
G|--8--6-----------------|
D|--------8--6-----------|
A|--------------9--6-----|
E|--------------------9--|

[Instrumental]
D# G#
E|--------------------------|
B|--------------------------|
G|--8--8--8--8--------------|
D|--8--8--8--8--6--6--6--6--| (x4)
A|--6--6--6--6--6--6--6--6--|
E|--------------4--4--4--4--|

D# C G# A# D#
E|---------------------------------------|
B|---------------------------------------|
G|--8--8--8--8------------------------8--|
D|--8--8--8--8--10--10--10--10--6--8--8--|
A|--6--6--6--6--10--10--10--10--6--8--6--|
E|--------------8---8---8---8---4--6-----|

[Verse] 
(Riff plays after each line
)
E|-----------------------------|
B|-----------------------------|
G|--------------------5--8-----|
D|--------5--8--8--8--------8--|
A|--6--6-----------------------|
E|-----------------------------|
Well, I'm goin' out west where I belong
Where the days are short and the nights are long

[Chorus]
D# G#
E|--------------------------|
B|--------------------------|
G|--8--8--8--8--------------|
D|--8--8--8--8--6--6--6--6--| (x4)
A|--6--6--6--6--6--6--6--6--|
E|--------------4--4--4--4--|
Where they walk and I'll walk
They twist and I'll twist
They shimmy and I'll shimmy
They fly and I'll fly

D# C G# A# D#
E|---------------------------------------|
B|---------------------------------------|
G|--8--8--8--8------------------------8--|
D|--8--8--8--8--10--10--10--10--6--8--8--|
A|--6--6--6--6--10--10--10--10--6--8--6--|
E|--------------8---8---8---8---4--6-----|
Well they're out there a'havin' fun
In that warm California sun.

[Verse] 
(Riff plays after each line
)
E|-----------------------------|
B|-----------------------------|
G|--------------------5--8-----|
D|--------5--8--8--8--------8--|
A|--6--6-----------------------|
E|-----------------------------|
Well, I'm goin' out west out on the coast
Where the California girls are really the most

[Chorus]
D# G#
E|--------------------------|
B|--------------------------|
G|--8--8--8--8--------------|
D|--8--8--8--8--6--6--6--6--| (x4)
A|--6--6--6--6--6--6--6--6--|
E|--------------4--4--4--4--|
Where they walk and I'll walk
They twist and I'll twist
They shimmy and I'll shimmy
They fly and I'll fly

D# C G# A# D#
E|---------------------------------------|
B|---------------------------------------|
G|--8--8--8--8------------------------8--|
D|--8--8--8--8--10--10--10--10--6--8--8--|
A|--6--6--6--6--10--10--10--10--6--8--6--|
E|--------------8---8---8---8---4--6-----|
Well they're out there a'havin' fun
In that warm California sun.

[Instrumental part]
E|-----------------------------|
B|-----------------------------|
G|--------------------5--8-----|
D|--------5--8--8--8--------8--| (x2)
A|--6--6-----------------------|
E|-----------------------------|

(This riff is played on top of the chorus chords:
)
D# G# (x4)
E|--------------------------------|
B|--------------------------------|
G|-----------8--8--8--8--8--8--8--|
D|--8--8--8-----------------------|
A|--------------------------------|
E|--------------------------------|

(Before verse:)
D# C G# A# D#
E|---------------------------------------|
B|---------------------------------------|
G|--8--8--8--8------------------------8--|
D|--8--8--8--8--10--10--10--10--6--8--8--|
A|--6--6--6--6--10--10--10--10--6--8--6--|
E|--------------8---8---8---8---4--6-----|

[Verse]
E|-----------------------------|
B|-----------------------------|
G|--------------------5--8-----|
D|--------5--8--8--8--------8--|
A|--6--6-----------------------|
E|-----------------------------|
Well the girls are frisky in old ‘Frisco
A pretty little chick wherever you go

[Chorus]
D# G#
E|--------------------------|
B|--------------------------|
G|--8--8--8--8--------------|
D|--8--8--8--8--6--6--6--6--| (x4)
A|--6--6--6--6--6--6--6--6--|
E|--------------4--4--4--4--|
A-a-and they'll walk and I'll walk
They'll twist and I'll twist
They'll shimmy and I'll shimmy
They'll fly and I'll fly

D# C G# A# D#
E|---------------------------------------|
B|---------------------------------------|
G|--8--8--8--8------------------------8--|
D|--8--8--8--8--10--10--10--10--6--8--8--| (x2)
A|--6--6--6--6--10--10--10--10--6--8--6--|
E|--------------8---8---8---8---4--6-----|
Well they're out there a'havin' fun
In that warm California sun
Yeah they're out there a'havin' fun
In that warm California sun

[Ending]
E|-----|
B|-----|
G|--8--|
D|--8--|
A|--6--|
E|-----|

            
            
Suggest correction
Creating personal tab
Creating personal tab
You can edit any tab online and save it as your Personal.

You can edit, replace or remove any tab part or add personal notes – all changes will be seen only by you.

Personal tabs can be accessed anytime from any device, even offline.
Learn more »
Give kudos to tab author, rate the tab!
1 2 3 4 5
comments
print report bad tab
guest
You may want to rate the tab now too:
select rating
Wanna post a correction for this tab? Suggest correction