Oops, an error
Loading. Please wait.

Hotter Than Heaven tab

60 views 1 this week
no commentswrite comment
1 2 3 4 5
3 more votes to show rating
add to favorites
×
Save as Personal and add changes to this tab that will be seen only by you. Learn more ›
×
You can save this tab as Personal to edit and correct it or add notes. All changes will be seen only by you. Learn more »
launch autoscroll
font size
0
reset
how to read this tab
guitar tuner
edit
Autoscroll
slow
fast
+/-
esc
set tempo
stop
Author
Difficulty
-----------------------------------------------------------------------------
                    HOTTER THAN HEAVEN - The Rocky Fortune
-----------------------------------------------------------------------------
Tabbed by: Jake Redekopp
Email: jascha00 gmail.com

RHYTHM GUITAR:
Intro (palm muted):

     E  Q         E  E  Q    E  E  Q       E  E  E  Q    E  Q     
E||----------||-------------------------|------------------------|
B||----------||-------------------------|------------------------|
G||----------||*------------------------|------------------------|
D||----------||*------------------------|-----------0------------|
A||--2--2----||------2--2-------2--2----|--2--0--2-------2--2----|
E||----------||-------------------------|------------------------|
                         __________________________  ______________________
                         1st, 2nd, 3rd time        || 4th time             |
  E  E  Q    E  E  Q       E  E  E  Q    E  Q      ||  E  Q    H        E  |
------------------------|--------------------------||----------2-----------|
------------------------|--------------------------||----------3-----------|
------------------------|------------------------*-||-----4----4-----------|
------------------------|------------------------*-||-----4----4-----------|
-----2--2-------2--2----|--2--0-----0----2--2------||--2--2----2-----------|
------------------------|--------2-----------------||----------------------|


Verse (2x):
 
  W              W  
--2---|------|---0---|------|
--3---|------|---2---|------|
--4---|------|---2---|------|
--4---|------|---2---|------|
--2---|------|-------|------|
------|------|-------|------|


A:

     E     E  E  E  E  E  E  E  E     E  E  E  E  E  E  E  E   
E||-----|--------------------------|--------------------------|
B||-----|--------------------------|--------------------------|
G||-----|--------------------------|--------------------------|
D||-----|-----------------0--------|--------------------------|
A||--2--|-----0--2--0--2-----0--2--|-----0--2--0--2--0-----2--|
E||-----|--------------------------|--------------------2-----|
 
 
  E  E  E  E  E  E  E  E     E  E  E  E  E  E  E  E    
--------------------------|--------------------------||
--------------------------|--------------------------||
--------------------------|-----------------4--2--0--||
-----------------0--------|--------0--2--4-----------||
-----0--2--0--2-----0--2--|-----0--------------------||
--------------------------|--------------------------||

Verse (don't play)

A 2x

More interlude + the bridge:

     E  E  E  E       E  E  Q    E  E  Q       E  E  E  E  E  E  E  E   
E||--------------||-------------------------|--------------------------|
B||--------------||-------------------------|--------------------------|
G||--------------||*------------------------|--------------------------|
D||-----------0--||*------------------------|-----------------------0--|
A||--2--0--2-----||------2--2-------2--2----|-----2--2-----2--0--2-----|
E||--------------||-------------------------|--------------------------|
 
 
  E  E  Q    E  E  Q       E  E  E  E  E  E  E  E        E  E  E  E  E  E  E  E   
------------------------|----------------------------||--------------------------|
------------------------|----------------------------||--------------------------|
------------------------|--------------------------*-||--------------4--4-----4--|
------------------------|--------------------------*-||--------------4--4-----4--|
-----2--2-------2--2----|-----2--2-----2--0--2--0----||-----2--2-----2--2-----2--|
------------------------|----------------------------||--------------------------|
 
           PM PM PM                 PM PM PM          
      Q    E  E  E  Q    E     Q    E  E  E  Q    E   
E||-------------------------|------------------------|
B||-------------------------|------------------------|
G||*-------4--4--4--4----7--|-------7--7--7--7-------|
D||*-------4--4--4--4----7--|-------7--7--7--7----2--|
A||--------2--2--2--2----5--|-------5--5--5--5----2--|
E||-------------------------|---------------------0--|
 
 
       PM PM PM                 PM PM PM             
  Q    E  E  E  Q    E     Q    E  E  E  Q    E   4x 
------------------------|--------------------------||
------------------------|--------------------------||
------------------------|---------------------4--*-||
-------2--2--2--2----5--|-------5--5--5--5----4--*-||
-------2--2--2--2----5--|-------5--5--5--5----2----||
-------0--0--0--0----3--|-------3--3--3--3---------||
 
Solo (4x):

  W     W     W     W      
-----|-----|-----|-----||
-----|-----|-----|-----||
--4--|--4--|--7--|--9--||
--4--|--4--|--7--|--9--||
--2--|--2--|--5--|--7--||
-----|-----|-----|-----||

At the end of the solo:
     Q    Q    E  Q    E     
E||------------------------||
B||------------------------||
G||------------------------||
D||------------9--9----9\--||
A||------------9--9----9\--||
E||------------7--7----7\--||

Verse

A (muted) 4x

A 6x

First 2 bars of A 4x

******************************************************************

LEAD GUITAR:
Intro:
First half is the same as the rhythm guitar, then this:

     W                   H        E  E  E  E     W                 
E||-------------------|-----------------------|-------------------|
B||-------------------|-----------------------|-------------------|
G||--2----------------|--------------2-----4--|--2----------------|
D||--2----------------|--------------2--0--4--|--2----------------|
A||--0----------------|--------------0-----2--|--0----------------|
E||-------------------|-----------------------|-------------------|
 
 
  H        E  E  E  E     H        E  E  E  E   
-----------------------|-----------------------|
-----------------------|-----------------------|
--------------2-----4--|-----------4--4-----4--|
--------------2--0--4--|-----------4--4-----4--|
--------------0-----2--|-----------2--2-----2--|
-----------------------|-----------------------|


Verse:

  E     E  E  Q    E  E  E  E     E  E  Q    E  E  E  E   
----||-------------------------|-------------------------|
----||--------0----3--0--------|--------0----3--0--------|
----||*------------------------|-------------------------|
----||*------------------------|-------------------------|
--2-||-----2----------------2--|-----2----------------0--|
----||-------------------------|-------------------------|
 
  E  E  Q    E  E  E  E     E  S S E  E  E  E  E  E      
-------------------------|-----------------------------||
--------0----3--0--------|-----------------------------||
-------------------------|---------------------------*-||
----------------------2--|--2h-3p2p0--2--0-----------*-||
-----0-------------------|------------------0-----2----||
-------------------------|-----------------------------||

A:
 
 E     E  E  E  E  E  E  E  E  E     E  E  E  E  E  E  E  E   
----|--------------------------|--------------------------|
----|--------------------------|--------------------------|
----|--------------------------|--------------------------|
----|-----------------0--------|--------------------------|
-2--|-----0--2--0--2-----0--2--|-----0--2--0--2--0-----2--|
----|--------------------------|--------------------2-----|
 
 
  E  E  E  E  E  E  E  E     E  E  E  E  E  E  E  E   
--------------------------|--------------------------|
--------------------------|--------------------------|
--------------------------|--------------4--7--4-----|
-----------------0--------|--------4--7--------------|
-----0--2--0--2-----0--2--|-----0-----------------2--|
--------------------------|--------------------------|

Verse (Don't play)

A twice

Pre-bridge (Use pinch harmonics):

  H.           E  E       E  E  E  Q    E  E  E   
---------------------||--------------------------|
---------------------||--------------------------|
---------------------||*-------------------------|
-----------------<4>-||*-------------------------|
---------------------||------5--5-------5--5-----|
---------------------||--------------------------|
____________________________  __________________________
 1st, 2nd, 3rd time         || 4th time                 ||
  E  E  E  E  E  E  E  E    ||  E  E  E  E  E  E  E  E  ||
----------------------------||--------------------------||
----------------------------||--------------------------||
--------------------------*-||--------------------------||
----------------------<4>-*-||--------------------------||
-----5--5-----5--4--0-------||-----5--5-----5--5-----5--||
----------------------------||--------------------------||

Bridge:

     S S      Q    E  S S Q    E  S S    Q    E  S S E  E  E  S S     
E||--5b6-||--r5-------------------5b6-|-r5--------------------5b6---||
B||------||-----------5b6r5-----------|----------5b6r5--3-----------||
G||------||*--------------------------|---------------------------*-||
D||------||*--------------------------|---------------------------*-||
A||------||---------------------------|-----------------------------||
E||------||---------------------------|-----------------------------||
 
 
     E  E  E   E  E   E  E  E    3x   E  E  E  E  E  E  E  E   
||-r5p--0---------2p--0-----5-----||5b7--7--7--7--7--7--------|
||---------3p--0---------3--------||-----------------------2--|
||*-----------------------------*-||--------------------------|
||*-----------------------------*-||--------------------------|
||--------------------------------||--------------------------|
||--------------------------------||--------------------------|


Solo:

    S  S S  S S  S S  S S  S S  S S  S S  S    S  S S  S S  S S  S S  S S  S S  S S S  
|-------------------------------------------|-----------------------------------------|
|-----p0-3p-0-5p-0-3p-0-2p-0-3p-0-5p-0-3--7-|----p0-5p-0-3p-0-5p-0-3p-0-2p-0-3p-0-2-5-|
|*------------------------------------------|-----------------------------------------|
|*------------------------------------------|-----------------------------------------|
|-------------------------------------------|-----------------------------------------|
|-------------------------------------------|-----------------------------------------|
                                     _____________________________________
                                    |1st time                             ||
  S  S S S S S S S S S S S S S S  S |  S  S S  S  S  S S  S  Q    E  E    ||
------------------------------------|-------------------------------------||
----p0-3-0-5-0-3-0-7-0-5-0-3-0-5-10-|----p0-7p-0-10p-0-7p-0-12-------2----||
------------------------------------|-----------------------------------*-||
------------------------------------|-----------------------------------*-||
------------------------------------|-------------------------------------||
------------------------------------|-------------------------------------||
 ___________________________________
|2nd time                            
  S  S S  S  S  S S  S  Q    E   E     E   E   E   S  S  E   E   E   E   
--------------------------------10--|---------10--12b13r12--10------10--|
----p0-7p-0-10p-0-7p-0-12-----------|-----12--------------------12------|
------------------------------------|-----------------------------------|
------------------------------------|-----------------------------------|
------------------------------------|-----------------------------------|
------------------------------------|-----------------------------------|
 
                                              |---3---|                     
  E   E   E   S  S  E   E   E   E     E   E   S   S   S  E   E   E  E   E   
---------10--12b13r12--10------10--|---------------------------------------|
-----12--------------------12------|-----12--10h-12p-10-----10-------------|
-----------------------------------|--------------------11------11--9\--7--|
-----------------------------------|---------------------------------------|
-----------------------------------|---------------------------------------|
-----------------------------------|---------------------------------------|
 
 
  E  E  E  E  E  E   E  E     E  E  E  S  S E  E  E  E     E  E  E  S  S E  E  E  E   
---------------------------|----------------------------|----------------------------|
---------------------------|----------------------------|----------------------------|
--9--7--6--7--6---------7--|--------7--9b10r9--7-----7--|--------7--9b10r9--7-----7--|
-----------------7/--9-----|-----9----------------9-----|-----9----------------9-----|
---------------------------|----------------------------|----------------------------|
---------------------------|----------------------------|----------------------------|
 
 
  E  E  E  E  E   E  E   E     E   E   E   E   E   E  E   E                H.  E E     
----------------------------|--------------7---7---7---------|---|---|---|----------||
--------7-----7--10--7--10b-|----b12-b12-b12-b12-b12----b12--|---|---|---|----------||
-----9-----9----------------|--------------------------------|---|---|---|----------||
----------------------------|--------------------------------|---|---|---|-----9-9\-||
----------------------------|--------------------------------|---|---|---|-----9-9\-||
----------------------------|--------------------------------|---|---|---|-----7-7\-||
 

Verse: same as verse 1

End (play the 1st bar several times very quietly, then the 3rd bar 4x):

     PM PM PM PM PM PM PM PM                                      
     E  E  E  E  E  E  E  E     E       E  E  Q    Q    E  E      
E||--------------------------|--2--||------2--2----2----2--2----||
B||--------------------------|--3--||------3--3----3----3--3----||
G||--4--4--4--4--4--4--4--4--|--4--||*-----4--4----4----4--4--*-||
D||--4--4--4--4--4--4--4--4--|--4--||*-----4--4----4----4--4--*-||
A||--2--2--2--2--2--2--2--2--|--2--||------2--2----2----2--2----||
E||--------------------------|-----||---------------------------||



  E       E  E  E  E  E  E  E  E     E  E  E  E  E  E  E  E   
-----||---------------------------|--------------------------|
-----||---------------------------|--------------------------|
-----||*--------------------------|--------------------------|
-----||*-----------------4--------|--------------------------|
--5--||------4--5--4--5-----0--5--|-----4--5--4--5--4--0--5--|
-----||---------------------------|--------------------------|
 
 
  E  E  E  E  E  E  E  E     E  E  E  E  E  E  E  E      
--------------------------|----------------------------||
--------------------------|----------------------------||
--------------------------|--------------4--7--4-----*-||
-----------------4--------|--------4--7--------------*-||
-----4--5--4--5-----0--5--|-----4-----------------5----||
--------------------------|----------------------------||
 
 
  E  E  E  E  E  E  E  E  
--------------------------|
--------------------------|
--------------4--7--4-----|
--------4--7--------------|
-----4-----------------2--|
--------------------------|
 

Then play A 4x, then this to finish the song:

         E   E   E   E   E   E   E   E      E   E   E   E   E   E   E  E   
------|---------------------------------|---------------------------------|
--10--|-----12--12--10--12--12--10--12--|--12--10--12--12--12--12--10--7--|
------|--------------------------9--11--|--11---9--11--11-----------9--7--|
------|---------------------------------|---------------------------------|
------|---------------------------------|---------------------------------|
------|---------------------------------|---------------------------------|

 
  W                   H.           E  E    
-------------------|---------------------||
-------------------|---------------------||
-------------------|---------------------||
-------------------|---------------9--9--||
-------------------|---------------9--9--||
-------------------|---------------7--7--||


 

            
            
Suggest correction
Creating personal tab
Creating personal tab
You can edit any tab online and save it as your Personal.

You can edit, replace or remove any tab part or add personal notes – all changes will be seen only by you.

Personal tabs can be accessed anytime from any device, even offline.
Learn more »
Give kudos to tab author, rate the tab!
1 2 3 4 5
comments
print report bad tab
guest
You may want to rate the tab now too:
select rating
Wanna post a correction for this tab? Suggest correction