Oops, an error
Loading. Please wait.
We have Chord Pro version of Angie.
It's the closest thing you can get to the original song and it has interactive parts. Check out the tab »
×
1,011,441 views 1,923 this week
34 commentsread comments
1 2 3 4 5
x 193
add to favorites
×
Save as Personal and add changes to this tab that will be seen only by you. Learn more ›
×
You can save this tab as Personal to edit and correct it or add notes. All changes will be seen only by you. Learn more »
launch autoscroll
font size
0
reset
transpose
0
reset
simplify chords
display chords
guitar tuner
backing track
0:00
0:00
edit
Autoscroll
slow
fast
+/-
esc
set tempo
stop
Author
Strumming
There is no strumming pattern for this song yet. and get +5 IQ
            Am                            E7                         P.M.>>>|
e|-----|-----0--0--0------3-0------------|---------0-------------0----------|
B|-----|-----1-----1------1-------1------|-------3---3--------3-------------|
G|-----|-----2-----2-----------2---------|-----4-------4------4-------4--0--|
D|-----|-----2---------2-------------2-2-|----------------------------------|
A|+12--|---------------------------------|----------------------------------|
E|-----|---------------------------------|-0--------------4-----------------|

  Gsus4                Fsus4 F                     Csus4    C      Gsus4/B
e|------------3-------------------1-----|-------1---------------0-----------|
B|---------3-----3-------------------1--|----------------1------1-------1---|
G|------5-----------5-----3--2----------|----2--------------0--------------0|
D|-5-------------------5--3--3----------|-3-----------3-----2---------0-----|
A|--------------------------------------|----------3---------------2--------|
E|--------------------------------------|-----------------------------------|

  Am                                      E7
       Ang - gie,                              An  -  gie
e|----0-----------5--5--5--3------------|-----------0---0--------0----------|
B|----1-----------5--5--5--3------------|---------3---3-3--------3----------|
G|----------------------------5---------|-------4-------4------------X------|
D|-2------------------------------------|-----------------------------------|
A|-0---------2--------------------------|-----------------------------------|
E|--------------------------------------|-0---------------------------------|

 Gsus4           G    Fsus4 F     Cadd4          C  
     when will those clouds all disappear?
e|----3----3----------------------------| 
B|----3----3----------------------------|
G|----5----5-----------3-----2----------|  
D|-5-------------0-----3-----3----------|
A|------------------------------------3-|
E|--------------------------------------|

Now the rhythm guitar starts strumming the chords. The lead should continue finger-
picking the chords because the rest of the song doesn't really have any consistent
riffs or licks and it is boring for your audience if you emulate every nuisance of
Keith Richards and Mick Taylor's finger-pickings. 


[Verse]

Am      E7
Angie, Angie, 

Gsus4      G     Fsus4  F        Cadd4   C
when will those clouds all disappear? 

Am     E7 
Angie, Angie, 

Gsus4      G  Fsus4 F      Cadd4   C
where will it lead us from here? 


[Chorus]

         G                                       Am      C
With no loving in our souls and no money in our coats 

           F             G
You can't say we're satisfied

    Am   Am7  E7
But Angie,    Angie,

G          F            Fsus4  F  C
you can't say we never tried 


[Verse]

Am7    Am    E7
Angie, you're beautiful, 

     G         F            Fsus4  F  Gsus4  C
but ain't it time we said good-bye? 

Am   Am7  E7     
Angie,    I still love you, 

     G    F                  Fsus4  F  Gsus4  C
remember all those nights we cried? 


[Chorus]

C                       G              
All the dreams we held so close 

           Dm       Dsus2   Am   Am7
seemed to all go up in    smoke 

          F              C/G    G
Let me whisper in your ear: 

Am     E7      G 
Angie, Angie, 

                F           F   Fsus4  F  C
where will it lead us from here? 


Solo on Piano arranged for guitar:
Am  

  Am7                E7                      
e|-20--19--19---17-------12--------12------19---17--17---16---------------12|
B|-17--------------------12h13-----12---------------------------------12----|
G|-----19--19---17-------------14----------19---17--17---16-------13--------|
D|-------------------14----------------14---------------------14------------|
A|--------------------------------------------------------------------------|
E|--------------------------------------------------------------------------|

         G         F                         Fsus4  F      C
e|------19p17-----18p17-----17---------13---13---12---10---12--------15---15|
B|-15---------20--18----20--18------13-------------------------15h17----15--|
G|-------------------------------14---------14---12---10---12---------------|
D|--------------------------------------------------------------------------|
A|--------------------------------------------------------------------------|
E|--------------------------------------------------------------------------|
  
       Am                             Am7              E7
e|-----20--19--20--17----12--------------------12------19p\17--19--16----12-|
B|-----17------17------------------------------12---------------------------|
G|-17------19------17----14--------12----14------------19p\17--19--16----13-|
D|-----------------------------14------------------14-----------------------|
A|--------------------------------------------------------------------------|
E|--------------------------------------------------------------------------|

                               G           F
e|-------------12------19--19--19p\17--15--18p17------17------17-------------|
B|---------12------15----------------------18-----20--18--20--18---------13--|
G|-----13--------------19--19--19p\17-----------------------------12h14------|
D|-14------------------------------------------------------------------------|
A|---------------------------------------------------------------------------|
E|---------------------------------------------------------------------------|

               C
e|-13--12--10--12------------|
B|---------12--------13--17--|
G|-14--12--10--12------------|
D|-------------------10--14--|
A|---------------------------|
E|---------------------------|


[Chorus]

C              G
Oh, Angie, don't you weep, 

           Dm                Am       C
all your kisses still taste sweet 

             F                     G
I hate that sadness in your eyes 

      Am  A5  E7
But Angie, Angie, 

    G       F              Fsus4  F  C
ain't it time we said good-bye? 


Interlude: Am7    E7    G    Fsus4  F    Gsus4  C 


[Chorus]

         G                         Dm              Am      C
With no loving in our souls and no money in our coats 

               F              G
You can't say we're satisfied


[Bridge]

    Dm                  E5    Am  Am7  Am9
But Angie, I still love you, baby 

Dm                            E5 Am  Am7   Am9 Am7
Ev'rywhere I look I see your eyes 

Dm              Dm9    Dm7       Am          G  C 
There ain't a woman that comes close to you 
         
         F                  G
Come on baby, dry your eyes 


[Verse]

    Am Am7 Am E5 E7  
But Angie,    Ang-ie, 

G        Fsus4 F         Fsus4  F   C  
ain't it good  to be alive? 


Am     G  E7 
Angie, An-gie, 

     G     Fsus4 F           F  Fsus4  F  Gsus4  C
they can't say  we never tried 

***********************

| /  slide up
| \  slide down
| h  hammer-on
| p  pull-off
| ~  vibrato
| +  harmonic
| x  Mute note

***********************

            
            
Suggest correction
Creating personal tab
Creating personal tab
You can edit any tab online and save it as your Personal.

You can edit, replace or remove any tab part or add personal notes – all changes will be seen only by you.

Personal tabs can be accessed anytime from any device, even offline.
Learn more »
comments
print report bad tab
34 comments total. Showing first comments.
+2 reply
boothy 20 Apr 02, 2005 07:00 PM

as far as i understand 022000 is Em, not G/B.

otherwise nice work.

+8 reply
gldmj 50 May 02, 2005 08:00 PM

the first note is a harmonic, boothy

-1 reply
GnRrelease_it 20 Aug 11, 2005 08:00 PM

isn't 020000 G/B?
i could be wrong

guest
You may want to rate the tab now too:
select rating
Wanna post a correction for this tab? Suggest correction