Oops, an error
Loading. Please wait.

Anybody Seen My Baby Tab

version 1
version 1

Solo

Interactive

3,126 views 4 this week
no commentswrite comment
1 2 3 4 5
please rate
add to favorites
launch autoscroll
font size
0
reset
how to read this tab
guitar tuner
Tab Pro tools
  • play this tab
  • loop segment
  • change instrument
  • show fretboard
  • metronome
×
Best way to learn
"Anybody Seen My Baby"
Autoscroll
slow
fast
+/-
esc
set tempo
stop
Contributor
Difficulty
novice
This is the last solo heard on the song.
Feel free to contact me if you find any mistakes.

e|-------------------------------------------------------------|
B|-12-15-17-19-20-19-17b19-17-17p15----15-17-15----------12----|
G|----------------------------------16----------14-12-14-------|
D|----------------------------------------------------------14-|
A|-------------------------------------------------------------|
E|-------------------------------------------------------------|

e|-------------------------------------------------------|
B|----------12----------------------------------15-17----|
G|-14-12-14----14-12----12h14p12s11-12-11-14-12----------|
D|-------------------14-------------------------------14-|
A|-------------------------------------------------------|
E|-------------------------------------------------------|

e|------------------|
B|-------12---------|
G|-12s14------------|
D|----------14-(x2)-|
A|------------------|
E|------------------|
comments
We did not receive enough feedback on this tab! Please rate:
print report bad tab
1 2 3 4 5
I want to post or [tab]
guest
You may want to rate the tab now too:
select rating
Please do not post tabs as comments. Select "correction" instead!