Oops, an error
Loading. Please wait.

Beast Of Burden Tab

version 1
version 1

Whole song

Interactive

280,424 views 573 this week
5 commentsread comments
1 2 3 4 5
accurate
x 24
add to favorites
launch autoscroll
font size
0
reset
how to read this tab
guitar tuner
Tab Pro tools
  • play this tab
  • loop segment
  • change instrument
  • show fretboard
  • metronome
×
Best way to learn
"Beast Of Burden"
Autoscroll
slow
fast
+/-
esc
set tempo
stop
Difficulty
intermediate
this tab actually came from www.mikesguitarsite.co.uk but looks better than the rest of the tabs


Gtr I (E A D G B E) - 'Keith Richards - Rhythm Clean Electric'
Gtr II (E A D G B E) - 'Ron Wood - Rhythm / Lead w/dist'


[Intro]
 
  Q=100
  4/4
   Gtr II
   E   W                   W
e|---|-----------------|-----------------------|
B|---|-----------------|-----------------------|
G|---|-----------------|-----------------------|
D|---|-----------------|-----------------------|
A|---|-----------------|-----------------------|
E|---|-----------------|-----------------------|
 |
 | Gtr I
 | E   Q  E E E E E  E    +E   E E E  E  e E E
e|---|-----------------|-----------------------|
B|-7h|=9--9-9-x-7----9-|--(9)-----------10---7h|
G|-8h|=9--9-9-x-8----9-|--(9)--9-x-9-----9---8h|
D|---|----9-9-x-9---11-|-(11)-11-x-9-11------9-|
A|-9-|-----------------|-----------------------|
E|-7-|-----------------|-----------------------|


   W                   H        E  S  S E E
e|-----------------|----------------------0---|
B|-----------------|--------------------------|
G|-----------------|--------------------9-----|
D|-----------------|---------------9h11-------|
A|-----------------|--------------------------|
E|-----------------|--------------------------|
 |
 | Q.   E E E E  E    +Q   E E  E  E    E E
e|-----------------|--------------------------|
B|-9----9---7----9-|--(9)---------10------7h==|
G|-9----9---8----9-|--(9)----9-----9------8h==|
D|------9---9---11-|-(11)----9h11---------9---|
A|-----------------|--------------------------|
E|-----------------|--------------------------|
 
|-Rhy Fig 1                    end Rhy Fig 1-|

 w/Rhy Fig 1 x2
                            ~~~~
    S E. +H        e  E     Q   Q    E  S  S S  S  E
e|----------------------|----------------------------|
B|-10p9--(9)------------|-------------------------10-|
G|-----------------9----|--------------------9-------|
D|--------------------9h|==11-----------9h11---11----|
A|----------------------|----------------------------|
E|----------------------|----------------------------|


   H.         Q        E  S S  E E  S  E.     Q
e|-----------------|--------------------------------||
B|-9---------------|--12----9h10p9-----------10p====||
G|-9---------------|--------------------------9-----||
D|-9---------------|----------------9h11-----11p====||
A|-----------------|--------------------------------||
E|-----------------|--------------------------------||


[Verse 1]

  w/Rhy Fig 1 x4
   Q   Q   E  E E  E     Q   E  E  +Q      S S S S
e|-------------------|-----------------------------|
B|-9-----------------|--------------------10p0-----|
G|-------------------|-------------------------9-9-|
D|-9------------9----|--11p==9-11-(11)-------------|
A|-----------11------|-----------------------------|
E|-------------------|-----------------------------|
                                        ~~~~
   +H.          a      +S   +E     S     Q    a E E  Q    E  e
e|-----------------------------------|-----------------------9---|
B|-----------------------------------|----------------------10---|
G|-(9)---------11b12==(11)r(11)p===9h|==11---11p9-9--------------|
D|-----------------------------------|---------------------------|
A|-----------------------------------|---------------------------|
E|-----------------------------------|---------------------------|

   E  E S S E  E E Q        E  a  E E S  S  E  E  E E
e|----------------------|-----------------------------|
B|------9-9------9------|------9h10p9-----------------|
G|----9-------11--------|-------------9h11p=9-------9-|
D|----------------------|----------------------9h11---|
A|----------------------|-----------------------------|
E|----------------------|-----------------------------|

   +Q   E E H            E  a  E E E  Q     E  E
e|------x------------|-----------------------------||
B|------x------------|--12--9h10p9-----------------||
G|-(9)---------------|---9------------9-----9------||
D|-------------------|-------------9-------11\-----||
A|-------------------|-----------------------------||
E|-------------------|-----------------------------||


[Verse 2]

  w/Rhy Fig 1 x3
   Q    E E Q   S S  S  S     S  S  S S S S E a  Q.      E
e|-----12-------9---------|--------------------------------|
B|---------------------12-|--------10-----9----------------|
G|------9-----------------|---------------9------9---------|
D|------------------------|------9------------9h11-------x-|
A|------------------------|--------------------------------|
E|------------------------|--------------------------------|

   E  E S  S E Q   E  E     E  E  S  S E  Q    E  S S
e|----------------------|------------------------------|
B|----------------------|------9-12p10-9---------10-9--|
G|-x---------------9----|----------------------9-------|
D|-x---------9-----9----|----------------11---------9--|
A|----x-9h11------------|------------------------------|
E|----------------------|------------------------------|

   +Q   E E Q   E  E     S   S      +S  S E  E  E  E Q
e|-------------------|--12-------------------------------|
B|-(9)--x-------x----|----------------------10-10--------|
G|------x-------x----|------11pb13r(11)-9----9--9--------|
D|-(9)--x-------x--x-|----------------------11-11--------|
A|-------------------|-----------------------------------|
E|-------------------|-----------------------------------|

   Q    e E e E e  E     E   E  E E E  S  S  E E
e|-----12------------|---x--12-12-----12-12-12---||
B|--------------9----|---x--12-12-----12-14-14---||
G|----------9--------|---------------------------||
D|-------------------|---------------------------||
A|-------------------|---------------------------||
E|-------------------|---------------------------||
 |
 | Q.     E E E E  E    +E   E  E E Q        E E
e|-------------------|-------------------------0-||
B|-9------9---7----9-|--(9)--9-----------------0-||
G|-9------9---8----9-|--(9)--9----0-2------------||
D|--------9---9---11-|-(11)-11----0-2------------||
A|-------------------|---------------------------||
E|-------------------|---------------------------||
                    |-Rhy Fill 1              --|


[Chorus]

   Q    E E  a      +E   +E   Q     a      +Q    E S S +H
e|-------------------------------|----------------------------|
B|---------------------------10--|----------------------------|
G|--------9-11b13==(11)r(11)-----|-11b13==(11)r--9---9-(9)----|
D|-------------------------------|----------------------------|
A|-----12------------------------|----------------------------|
E|-------------------------------|----------------------------|
 |
 | E E  E E         +H                      Q.     E   +H
e|-------------------------------|-----------------0---(0)----|
B|--------2---------(2)----------|--------^-0------0---(0)----|
G|------2------------------------|--------^-1-----------------|
D|---2---------------------------|--------^-2-----------------|
A|-0-----------------------------|--------^-2-----------------|
E|-------------------------------|--------^-0-----------------|
 |-Rhy Fig 2

   E  E  a      +E   E  a      +E   +E  Q
e|------------------------------------------|
B|------------------------------------------|
G|------11b13==(11)r---11b13==(11)r(11)-9---|
D|----9-------------------------------------|
A|------------------------------------------|
E|------------------------------------------|
 |
 | Q.                E         +H
e|------------------------------------------|
B|-------------------2---------(2)----------|
G|-2-----------------2---------(2)----------|
D|-2----------------------------------------|
A|-0----------------------------------------|
E|------------------------------------------|

    E   E E  E  +E   E E E   Q   E E  Q     E E
e|-------------------------|----------------7h9--||
B|----------12-(12)-12-9---|-7--------7----------||
G|-11---9-9----------------|-------8-------------||
D|-------------------------|-----9---------------||
A|-------------------------|---------------------||
E|-------------------------|---------------------||
 |
 |  S S E E  E  +Q.      E   E E E E +E  E  E E
e|--0--------0--(0)--------|---7-----------------||
B|----0---0----------------|---7--------------7h=||
G|------1------------------|-8----------------8h=||
D|-------------------------|-------9-(9)-9s11-9--||
A|-------------------------|---------------------||
E|-------------------------|-----7------------0--||
            end Rhy Fig 2-|


[Verse 3]

  w/Rhy Fig 1 x3.5
   Q   a  E E E a  E Q        E  S  S E  E  E a  E S  S E
e|------------------------|-------------------------------|
B|------------------------|-------------------------------|
G|------------9----9------|-----------9--9-------9--------|
D|----------9---9h11------|-----------9-11----9h11-9------|
A|-----9s11---------------|------9h11----------------11s9p|
E|------------------------|-------------------------------|

                                   ~~~        ~~~~~~
   E  E E E Q   S  S  S  S     S   E. S  S  S S +Q     a  S S E
e|-------------------------|----------------------------------------|
B|------x------------------|----------------------------------------|
G|------x------------------|----------9----11-9-(9)---------9-------|
D|------x-------------9----|---9h=11----11-------------9h11---------|
A|-7------------9s11----11-|----------------------------------------|
E|-------------------------|----------------------------------------|

   Q   a  S S E Q   a  S S  E     H        E  S  S  +E   E
e|----------------------------|----------------------------|
B|-----9h10p9-------9h10p9h10-|-----------10-10s12-(12)-10p|
G|-----9------------9---------|----------------------------|
D|-----9h11p9-------9h11p9h11-|----------------------------|
A|----------------------------|----------------------------|
E|----------------------------|----------------------------|

                        |-w/Rhy Fill 1                                                   
   E  E E E E E E  S  S     S   S  E  +E       E E  E  E E
e|------x---------------|---9-----12-(12)b12.5-----12-12---||
B|-9----x----------9h12-|------12--------------------------||
G|----------x-9---------|----------------------------------||
D|----------------------|----------------------------------||
A|----------------------|----------------------------------||
E|----------------------|----------------------------------||


[Chorus]

  w/Rhy Fig 2
   Q   S  S  E  +E   Q   E    Q   E  E  +Q   Q
e|-------------------------|--------12-(12)-----|
B|----------10-(10)-----10-|------9-12-(12)-----|
G|-----9-----9--(9)------9-|------9-------------|
D|-----9h11----------------|--------------------|
A|------------------12-----|--------------------|
E|-------------------------|--------------------|

   Q    E E  a      +E   +E  S  S E    E   E  E E +Q   E E
e|----------------------------------|-----------------------|
B|-----10---------------------------|------------------9----|
G|--------9-11b13==(11)r(11)-9----9-|-11-----11-9-(9)-------|
D|-----------------------------11---|-----------------------|
A|----------------------------------|-----------------------|
E|----------------------------------|-----------------------|

   E   E  Q    Q    a      +Q      E  E  a  +Q     a      +Q      S S  E
e|-------------------------------|----------------------------------------|
B|----12-12---12---12b14==(12)---|---12-12r(12)---------------------------|
G|-------------------------------|----------------11b13==(11)r---11p9-----|
D|-------------------------------|------------------------------------11--|
A|-------------------------------|----------------------------------------|
E|-------------------------------|----------------------------------------|
 |
 | Q.       E +Q.              E   Q         E  E         +E   E  E    E
e|-------------------------------|--------------7---------(7)-------------||
B|-----------------------------7-|--------------7---------(7)----------7h=||
G|-8--------8-(8)--------------8-|-----------------------------8--8----8h=||
D|-9--------9-(9)----------------|-----------9-----------------9--9----9--||
A|-9--------9-(9)----------------|-9------------------------------9-------||
E|-7--------7-(7)----------------|-7------------------------------7----0--||


[Guitar Solo]

  w/Rhy Fig 1 x4
                                                      ~~
   Q   S S  E  +Q.      E     S      +S  S  S S  S E  Q    S  S e
e|-----9------------------|---------------------------------------|
B|-------9-12-(12)-----12-|---------------------------------------|
G|------------------------|--11pb12r(11)-9----9h11--------------9-|
D|------------------------|----------------11------9-11----9h11---|
A|------------------------|---------------------------------------|
E|------------------------|---------------------------------------|

                                                                   ~~~~~~~~~
   Q   S  S S  S S  S S  S S  S  a      +E     +E    E  E  S      +S   +Q      +E   E
e|-------------------------9h12-12b14==(12)-|-(12)r-12-12--------------------------------|
B|--------------------9h12------------------|-------------12b14==(12)-(12)r===(12)-12----|
G|---------------9h11-----------------------|--------------------------------------------|
D|----------9h11----------------------------|--------------------------------------------|
A|-----9h11---------------------------------|--------------------------------------------|
E|------------------------------------------|--------------------------------------------|

                         ~
    a      +E.  +S   E E Q    E  E     E   E E E  E  E  E  E
e|---------------------------------|-------------------------|
B|---------------------------------|------10p9---10----10s12-|
G|-11b13==(11)r(11)------9---------|---x---9------9----------|
D|------------------11-------11----|---x--11p9---11----11s13-|
A|---------------------------------|-------------------------|
E|---------------------------------|-------------------------|

                                                |-----6------| |-----6------|
  E  E S S S  S S S S  S E  S  S     E  E  Q    S  S S  S S  S S  S S  S S  S
e|--------------------------------|--------------------------------------------||
B|------9-----12-----9h10p9-------|--------------9h10p9------------------------||
G|---------------------------9h11p|===9-----------------11p9-------------------||
D|----9------------9--------------|------9-11----9h11p9------11p9h11p9h11p9h11-||
A|--------------------------------|--------------------------------------------||
E|--------------------------------|--------------------------------------------||


[Interlude]

 w/Rhy Fig 1 x4
                        |-----6------|
  E  E E E E e Q        S   S S S  S S  E E  S  S  E  a S S E
e|-------------------|-----------------------------------------|
B|--------x----------|---9h=10p9-------------------------------|
G|------9-x---9------|-----------9h11p9----9--------9----------|
D|------9------------|------------------11-9-------------------|
A|-9h11--------------|------------------------9h11----11s9p7---|
E|-------------------|---------------------------------------9-|

   S  E. E e Q   E  E    +E  E  E  a      +E  +E    E E  E
e|------------------9-|--(9)p7-12-12b14==(12)(12)r-12-9----------|
B|---------9----------|---------------------------------12b14====|
G|-------9-9----------|------------------------------------------|
D|----9---------------|------------------------------------------|
A|--------------------|------------------------------------------|
E|--------------------|------------------------------------------|
                      ~~~~
    +E   +E   a      +Q     +E   +E  E  E     E   a       Q     E  E  E  E E
e|-----------------------------------9----|---------------------------0--0---|
B|-(12)r(12)----------------------------9-|--12----------12-------12-12-12---|
G|-----------11b13==(11)---(11)r(11)------|------11b13==(11)r----------------|
D|----------------------------------------|----------------------------------|
A|----------------------------------------|----------------------------------|
E|----------------------------------------|----------------------------------|

   E   E E  E a  E E  E  E     E  S  S e  e a  E a  E a  E S  S
e|-------------------------|---------------------------------------||
B|-------9-------9---------|----------------9h10-9h10-9h10-9h10p===||
G|-9-----9----9h11---------|-----------9---------------------------||
D|----11---11--------11----|------9h11---11-9h11-9h11-9h11-9h11p===||
A|-------------------------|---------------------------------------||
E|-------------------------|---------------------------------------||


[Verse 4]

  w/Rhy Fig 1 x4
   E  E E E S  E.   S  S a  E     E  a  E E  E a  E  E a  E  E
e|----------------------------|--------------------------------|
B|-9--------------------------|----------------9h10-10-9h10-10p|
G|------9---9h11----9-------9-|-----------9--------------------|
D|-9--9---9---------9h11-9h11-|------9h11---11-9h11-11------11p|
A|----------------------------|--------------------------------|
E|----------------------------|--------------------------------|

      PM  PM          PM|            PM|
   E  E E E a  S S  E S  S  E     E  S  S E S a  S  S T  T  e a  e a  e
e|----------------------------|--------------------------------------------|
B|-9--------------------------|-----------------10---------10-9h10-9h10p===|
G|------9---9h11p9h11---------|-----------9--------------------------------|
D|-9--9---9-----------9-11----|------9-11-----9h11----9h11----9h11-9h11p===|
A|----------------------------|--------------------------------------------|
E|----------------------------|--------------------------------------------|

   Q   Q   e E Q        S   S E E  a      +E    S S  E E E
e|---------9--------|--------------------------------------|
B|-9----------------|---9--12p9-9--------------------------|
G|------------------|-------------11b13==(11)r-11p9--------|
D|-9----------------|----------------------------------9-9-|
A|------------------|-------------------------------11-9---|
E|------------------|--------------------------------------|

   Q   E E E E E  E     E   E E  E  +S  E.    a  S S  E
e|---------x------9-|-------------------------------------||
B|---------x------9-|------12p9-10-(10)-------------------||
G|-----9-9---9------|------------9--(9)-9-----9h11p9------||
D|-9----------------|--------------------------------11p==||
A|-----------0------|-------------------------------------||
E|------------------|-------------------------------------||


[Verse 5]

   w/Rhy Fig 1 x8
   E  E E E E E E  E     e  S  S  +S  S E  S  E.     S S  S S
e|-------------------|---9------------------------------------|
B|----9---9----------|---9----12-(12)---9--9h10-----10p9h10p9-|
G|----9---9----------|----------------------------------------|
D|-9-----------------|------9---------9-----------------------|
A|------------9-9----|----------------------------------------|
E|-------------------|----------------------------------------|

   E  E E  a      +E    a       +E    a       +E    a       +S   +E     S
e|-9----------------------------------------------------------------------|
B|-9----------------------------------------------------------------------|
G|--------11b13==(11)r(11)b13==(11)r(11)b13==(11)r(11)b13==(11)r(11)------|
D|------------------------------------------------------------------------|
A|------------------------------------------------------------------------|
E|------------------------------------------------------------------------|

     E  E S  E   S  S  E.     E.    S
e|------9---------------------------------|
B|------9---12------9h10-----------10p====|
G|----------------------------9-----------|
D|---------------------------11----11p====|
A|----------------------------------------|
E|----------------------------------------|

                 PM|
                          |--3--|   |-3--|        |-3--|
  E  S S Q   Q   e  e     S   S S E S  S S  E  E  S  S S  S  S E
e|---------------------|------------------------------------------|
B|-9-----------------9-|-----------9--------10------------10-10---|
G|----x-0---------9----|---------9--------9-------------9-----9---|
D|-9--x-----------9----|---9h=11-----9h11----------9h11-----------|
A|---------------------|------------------------------------------|
E|---------------------|------------------------------------------|


  |-3--|
  S  S S E Q   S T  T S S E  E     S   S  E  +E  E  S  S  S  S  a E E
e|------------------------------|----------------------------------------|
B|--------9--------------9-9----|---------10-(10)------10p=9-------------|
G|------9-9------------9--------|----------9--(9)-------9----------------|
D|-9h11-----------9h11----------|---9h=11---------9----11p=9----11p9-----|
A|------------------------------|----------------------------11----------|
E|------------------------------|----------------------------------------|

       |3-|
   Q   E  S e Q    a      +S   S  e     E   E      E  a      +E   +S  S  E S  S E
e|--------------------------------9-|---------------------------------------------|
B|-----------------------------9----|--12--12pb14-12------------------------------|
G|----------9-----11b13==(11)r------|----------------11b13==(11)r(11)p9---------9-|
D|-----9h11-------------------------|-----------------------------------11-9h11---|
A|----------------------------------|---------------------------------------------|
E|----------------------------------|---------------------------------------------|

   S  S e E E Q   E  E     E  E  E E  E  E  E  E
e|----------x----------|--------------------------|
B|----------x----------|--10s=x-10sx-10s12-10s12--|
G|------9---x--------x-|---9----------9-----9-----|
D|----9-----------x----|--------------------------|
A|-9h11----------------|--------------0-----------|
E|---------------------|--------------------------|

   Q   S S S  S Q   E  S a  S    +Q   E S a  S  E  S S e E
e|----------------------------|----------------------------|
B|----------------------------|----------------------------|
G|-----9-----11-----9h11----9-|--(9)--x---9h11-----x-x-9---|
D|-----------11----------9h11-|-(11)--x---9h11-----x-x-9---|
A|----------------------------|----------------------------|
E|----------------------------|----------------------------|

   E  E E  S  S Q   E  S S     Q   E E  E  S S  E E
e|-------------------------|-------------------------||
B|-------------------------|-------9-----------------||
G|-x----9-11-11-----9-11p9-|---------------x-9-------||
D|-x----9-----------9-11p9-|--11-------------9----9--||
A|-------------------------|-------------------12----||
E|-------------------------|-------------------------||


[Outro]

   w/Rhy Fig 1 to end
   a  E E e E E S S Q        Q    E E  E  S  S  S  S  E
e|-----------------------|------------------------------|
B|-----------------------|---------------10-10-10-10-10-|
G|--------9-----8h9------|---9----9------11-11-11-11-11-|
D|-9h11p9----------------|---9---11---------------------|
A|------------------0----|---0--------------------------|
E|-----------------------|------------------------------|

    E E Q   Q    S      +S   +E      E   E H         Q
e|-------------------------------|---9-----9--------------|
B|-10p9--------------------------|------12----------------|
G|--9-----------11b12==(11)r(11)-|------------------------|
D|-11p9--------------------------|------------------------|
A|-------------------------------|------------------------|
E|-------------------------------|------------------------|

    a       E   E E E  Q    a      +E    E     E   E  H         E E
e|---------12-------9----------------------|------------------------|
B|-15b17==(15)r-----9-12-------------------|---------10-----------x-|
G|-------------------------11b13==(11)r--9-|---9------------------x-|
D|-----------------------------------------|---9h=11--------------x-|
A|-----------------------------------------|------------------------|
E|-----------------------------------------|------------------------|

                           |--3--|               |-3--|
  Q   S S S S H            T   T T  S  S  S E.   T  T T  S  S  E T T  T T  e
e|----------------------|---------------------------------------------------------|
B|-9---9-----9----------|-----------10-10-10-------------10-10-------------10-----|
G|-------9--------------|---------9--------------------9-----------------9--------|
D|---------9------------|---9h=11-----------------9h11--------------9h11----------|
A|----------------------|---------------------------------------------------------|
E|----------------------|---------------------------------------------------------|

                          |--3--|
   Q   E a  E H            S   S S  S  S Q    Q     S S  S  S
e|---------------------|--------------------------------------|
B|---------------------|-----------10-10-----------10p9h10-10p|
G|-------9h11----------|---------9-----9------------9-------9-|
D|---------------------|---9h=11-------------------11p9h11-11p|
A|---------------------|--------------------------------------|
E|-0-------------------|--------------------------------------|


                                           |--3--|
   Q   E.   S Q    S S  S S    +Q   a  E E  S  S  S  +E   +S  S E
e|--------------------------|---------------------------------9-----|
B|-9--------9---------------|--------------------10-(10)-(10)---9---|
G|----------9-----11p9h11p9-|--(9)----------------9--(9)--(9)-------|
D|-9------------------------|-------9h11----9h11----------------9---|
A|--------------------------|---------------------------------------|
E|--------------------------|---------------------------------------|


   S S E Q   E  Q    E   a   E  Q   E  Q    a E E
e|-9---------9---------|--------------------------|
B|-9p0---------12------|-9h=10p=9-----------------|
G|---------------------|----------------------9---|
D|---------------------|--------------------9-----|
A|---------------------|--------------------------|
E|---------------------|--------------------------|


   E  E E E  E E E  E     E  E E  E  +E   S  S S  S E
e|------9-------------|-----------------------------0--|
B|------9---12---9----|--10----9-----------------------|
G|---------------9----|---9----9-----------------------|
D|----9---9----9------|------9---11-(11)-------9-------|
A|--------------------|-------------------9h11---11----|
E|--------------------|--------------------------------|


   E  E  S S S S E  E a  E  E     S   E. e E  E  S S  S S E
e|------12-----9--------------|-----------------------------|
B|-------------9---12-9h10p=9-|-----------------------------|
G|--------------------9-------|---9h=11--9-------9-9--9-----|
D|----9----------x----9h11p=9-|----------9-9h11------11p9---|
A|---------------x------------|-----------------------------|
E|----------------------------|-----------------------------|


   Q    E S  S  +Q    e  E    a      +E    S S E  E  +Q     E E
e|-----12---12-(12)---9----|---------------------------------------|
B|--------9--------------9-|--------------------------------x------|
G|-------------------------|-11b12==(11)r-11p9--------------x------|
D|-------------------------|-------------------9-11-(11)----x------|
A|-------------------------|---------------------------------------|
E|-------------------------|---------------------------------------|


   Q   S S  S S Q   S S  S S     Q   S S  S S +Q      S S  E
e|---------------------------|-------------------------------|
B|---------------------------|-------------------------------|
G|-----9------------9--------|--------------9-(9)----11p9----|
D|-------9----9-------9----9h|==11-----9h11---------------11-|
A|---------11-----------11---|-------------------------------|
E|---------------------------|-------------------------------|


      PM|       ~
   E  S  S E  E Q    E  E     S   S S  S a E E  E  E E S  S
e|------------------------|-----------------------------------|
B|------------------------|----------------x------10----------|
G|--------------9---11----|--------------x---------9----------|
D|---------9-11-----------|---------9h11----------11----------|
A|----9-11----------------|---9h=11--------------------9h11---|
E|------------------------|-----------------------------------|


   e  S  S e E S  S  S  S  E  E    a   E  E E E +Q      S S  S S
e|------------------------------|--9s==7-------------------------|
B|------------------10s12s10----|-10s==9----------------9--------|
G|-9-------9---------9--------x-|-----------9-9-(9)----11p9------|
D|---------9-----11-------------|---------9-----------------11p9-|
A|----9-11----------------------|--------------------------------|
E|------------------------------|--------------------------------|


                |-----5------|     |--3--|         |-3--|
   E  E e E Q   S  S S     S S    +S   S S  e Q    S  S S  E Q
e|------9----------------------|----------------------------------*|
B|------9----------------------|----------------------------------*|
G|------9-------9h11p9-------9-|--(9)h11p9---------9h11p9---------*|
D|-x----------------------11---|-----------11-------------11------*|
A|-x--x------------------------|----------------------------------*|
E|-----------------------------|----------------------------------*|



************************************

| x    Dead note
| (n)  Ghost note
| h    Hammer-on
| p    Pull-off
| b    Bend
| pb   Pre-bend
| \    Slide down
| ~    Vibrato
| s    Slide

************************************
comments
print report bad tab
5 comments total. Showing first comments.
0 reply
blur819 wrote on October 8 2006, 01:32 am

Keith's guitar is in open G, no low E string... so is Ron's I believe. I will attempt to tab Kieth's basic rythym in another version. Sorry... this is why I rated you down... but NO ONE has ever gotten this right anyways... keep it up tho!

0 reply
Moutardentube wrote on February 23 2010, 02:22 pm

Both guitars are in standard tuning... BOB is really not the kind of song that needs open G.

0 reply
spoogle wrote on January 19 2011, 07:03 pm

| Q. E E E E E +Q E E E E E E
|-----------------|--------------------------|
|-9----9---7----9-|--(9)---------10------7h==|
|-9----9---8----9-|--(9)----9-----9------8h==|
|------9---9---11-|-(11)----9h11---------9---|
|-----------------|--------------------------|
|-----------------|--------------------------|
|-Rhy Fig 1 end Rhy Fig 1-|

how do i play the last chord? what do the == mean?

I want to post or [tab]
guest
You may want to rate the tab now too:
select rating
Please do not post tabs as comments. Select "correction" instead!